Six Feet Under - Torn To The Bone Chords & Tabs

 

Torn To The Bone Chords & Tabs

Six Feet Under Chords & Tabs

Version: 1 Type: Tab 0 ratings
1 star 2 stars 3 stars 4 stars 5 stars
comments

Torn To The Bone Tab

   
                        SIX FEET UNDER - TORN TO THE BONE
                            From the Album - HAUNTED 
                       Copyright - METALBLADE RECORDS 1995
                           Version 1.0 - Aug 28, 2002

Transcribed By: James Williams (Inverted) 

For Questions, Comments, Newest Version, Corrections or Request; 
Contact Inverted: at Inverted_one@hotmail.com 

Check Out Death8699.com, With More Transcriptions On It: 
http://www.death8699.com 

.  - palm mute           /  - slide up to 
\  - slide down to       ~  - vibrato 
h  - hammer on           b  - Bend 
p  - pull off            Suffixes for bend 
t  - tap                 f  - full bend    h - half bend 
ph - pinched harmonic    q  - quarter bend t - tap bend 
*  - see comment         ^  - Hold bend    r release bend 
x  - Stuccatto           ~  - vibrato bend 
,  - slight palm mute    () - ghost note, sustained note 
"  - tremolo note        <> - Trill 

Tunning "D"G"C"F"A"D" 

[ Tab from: http://www.guitartabs.cc/tabs/s/six_feet_under/torn_to_the_bone_tab.html ]
Riff 1
|-------------------------------------------------------------------|
|-------------------------------------------------------------------|
|-------------------------------------------------------------------|
|--------10-------------11--------------10-------11-10----------10--|
|---------8-10-9---------9-11-10---------8-10-9---9--8-10--9-10--8--|
|--0-000-----8-7--0-000-----9--8--0-000-----8-7---------8--7--8-----|
   . ...          . ...           . ...
  
Fill 1 
|-------------------------------------------------------------------|
|-------------------------------------------------------------------|
|-------------------------------------------------------------------|
|--2--------------2---------------2---------------------------------|
|--2--------------2---------------2---------------------------------|
|--0--------------0---------------0---------------------------------|


Riff 2
|---------------------------|
|---------------------------|
|---------------------------|
|--------------------6---5--|
|--2-----3-----3-----4-5-3--|
|--0-000-1-111-1-111---3----|


Bridge
|------------------------------------------------------------------|
|------------------------------------------------------------------|
|------------------------------------------------------------------|
|--2---------------2---------------2---------------2---------------|
|--2---------------2---------------2---------------2---------------|
|--0------------0--0------------0--0------------0--0---------------|
                .               .               .

Riff 3
|-------------------------------------------------------|
|-------------------------------------------------------|
|-------------------------------------------------------|
|--------5---4---------------------5--------------------|
|--------3-5-2--------4-2-3--------3--------------------|
|--0-000---3----0-000-2-0-1--0-000----0-0-444444111111--|
   . ...        . ...        . ...    . . ............

Riff 4
|-------------------------------------------------------|
|-------------------------------------------------------|
|-------------------------------------------------------|
|-----------------------------------------6-----5-------|
|--------5-2-3--------4-5-3--------5------4-----3-------|
|--0-000-3-0-1--0-000-2-3-1--0-000-3--0-0-4-----3-------|
   . ...        . ...        . ...    . .


Check out my other tabs by: Deicide, Obituary, Hypocrisy, 
Grave, Catastrophic, Six Feet Under, Incantation, Death and 
Cannibal Corpse.
Comments