Six Feet Under - Tomorrows Victim Chords & Tabs

 

Tomorrows Victim Chords & Tabs

Six Feet Under Chords & Tabs

Version: 1 Type: Tab 0 ratings
1 star 2 stars 3 stars 4 stars 5 stars
comments

Tomorrows Victim Tab

#----------------------------------PLEASE NOTE--------------------------------#
#This file is the author's own work and represents their interpretation of the#
#song. You may only use this file for private study, scholarship, or research.#
#-----------------------------------------------------------------------------#
#-- File created with Instab - http://www.pconline.com/~smcarey/instab.html --#
#-----------------------------------------------------------------------------#

Author/Artist: Six Feet Under
Title: Tomorrow's Victim
Album: Haunted - 1995
Transcribed by: Son Of Northern Darkness (Felipe Cepollini)
Email: ben_wrangle@hotmail.com
Date: 17,18/November/2002

. palm mute
= let ring
[ Tab from: http://www.guitartabs.cc/tabs/s/six_feet_under/tomorrows_victim_tab.html ]
  INTRO
d|-----------------------------------------------|
A|-----------------------------------------------|
F|-----------------------------------------------|
C|------9------------9---------9-----------------|
G|-2----7----2-------7----2----7----2-3-3--3-4-3-|
D|-0----0----0--0-0--0----0----0----0-1-1--1-2-1-|
                . .

  RIFF 1
d|-------------------|
A|-------------------|
F|-----------------5-|
C|-2--5--3------3--5-|
G|-2--5--3------3--3-|
D|-0--3--1--0-0-1----|
            . .     

  RIFF 2
d|------------------------------------|
A|------------------------------------|
F|------------------------------------|
C|------9-----------9=----------------|
G|-2----7----7-9-10------2-3-3--3-4-3-|
D|-0---------------------0-1-1--1-2-1-|
                    

  CHORUS RIFF
d|-------------------|
A|-------------------|
F|-------------------|
C|-2=---8=---2=---3=-|
G|-2=---8=---2=---3=-|
D|-0=---6=---0=---1=-|


SONGSTRUCTURE:
Intro: 4x
Riff 1: 4x
Riff 2: 2x
Riff 1: 4x
Riff 2: 2x
Chorus riff: 2x
Riff 2: 4x
Riff 1: 4x
Riff 2: 4x
Chorus riff: 2x
Riff 2: repeat 'til the end the end of the song


That's all!!! Easy song, GREAT song.

Comments, sugestions, or anything you want tell about the tab, send a mail.
Comments