Six Feet Under - Tomerrows Victim Chords & Tabs

 

Tomerrows Victim Chords & Tabs

Six Feet Under Chords & Tabs

Version: 1 Type: Tab 0 ratings
1 star 2 stars 3 stars 4 stars 5 stars
comments

Tomerrows Victim Tab

   
                        SIX FEET UNDER - TOMORROWS VICTIM
                            From the Album - HAUNTED
                          Copyright: METAL BLADE 1995
                           Version 2.1 - Nov,19 2001


Transcribed by: James Williams (Inverted)

For Questions, Comments, Newest Version, or Corrections contact
Inverted: at Inverted_one@hotmail.com

Check Out Death8699.com Metaltabs.com or dsrmusic.com for More
Transcriptions:http://www.Death8699.com http://www.Metaltabs.com


 .  - palm mute           /  - slide up to
 \  - slide down to       ~  - vibrato
 h  - hammer on           b  - Bend
 p  - pull off            Suffixes for bend
 t  - tap                 f  - full bend    h - half bend
 ph - pinched harmonic    q  - quarter bend t - tap bend
 *  - see comment         ^  - Hold bend    r release bend
 x  - Stuccatto           ~  - vibrato bend
 ,  - slight palm mute    () - ghost note, sustained note
 "  - tremolo note        <> - Trill

 TOMORROWS VICTIM...

 Tuning: "D"G"C"F"A"D"
[ Tab from: http://www.guitartabs.cc/tabs/s/six_feet_under/tomerrows_victim_tab.html ]
Riff 1-A
|--------------------------------------------|
|--------------------------------------------|
|--------------------------------------------|
|------4------5-4--4-------4-----------------|
|--2---2---2--3-2--2---2---2---2\3--3-3\4-3--|
|--0-------0-----------0-------0\1--1-1\2-1--|
pm            . .

Riff 2
|-------------------------------------|
|-------------------------------------|
|-------------------------------------|
|-2--5--3------3-5--2--5--3------3-8--|
|-2--5--3--2-2-3-5--2--5--3--2-2-3-8--|
|-0--3--1--0-0-1-3--0--3--1--0-0-1-6--|
pm         . .               . .

Riff 1-B
|--------------------------------------------|
|--------------------------------------------|
|------4------5-4--4-------4-----------------|
|------2------3-2--2-------2-----------------|
|--2-------2-----------2-------2\3--3-3\4-3--|
|--0-------0-----------0-------0\1--1-1\2-1--|
pm            . .



Riff 3
|--------------------------------------|
|--------------------------------------|
|--------------------------------------|
|--2--------8--------2--------3--------|
|--2--------8--------2--------3--------|
|--0--------6--------0--------1--------|

 Thats the whole song. Check out my other tabs by S.F.U,
Obituary, Hypocrisy and Grave. If you dont like my tabs
then do you own!
Comments