Six Feet Under - Tnt Chords & Tabs

 

Tnt Chords & Tabs

Six Feet Under Chords & Tabs

Version: 1 Type: Bass Tab 0 ratings
1 star 2 stars 3 stars 4 stars 5 stars
comments

Tnt Bass Tab

Six Feet Under
TNT (AC/DC cover)

Bass Tabs
____________________


|-----|
|-----|
|-----|
|--0--|


/!\ Intro, No bass 

|-----|
|-----|
|-----|
|--3--|   x4


Chorus

|--------------------------------|
|--------------------------------|
|--------------------------------| 
|--5-3-0-0-0-0-0-0-0-0-0-0-0-0-0-|    x3


|--------------------------------|
|--------------------------------|
|--------------------------------| 
|--5-3-0-0-3-5-------------------|

During Solo Guitar

|--------------------------------|
|--------------------------------|
|--------------------------------| 
|-0-0-0-0-0-0-0-0-0-0-...........|


Chorus (x2)
[ Tab from: http://www.guitartabs.cc/tabs/s/six_feet_under/tnt_btab.html ]
|--------------------------------|
|--------------------------------|
|--------------------------------| 
|--5-3-0-0-0-0-0-0-0-0-0-0-0-0-0-|    x3


|--------------------------------|
|--------------------------------|
|--------------------------------| 
|--5-3-0-0-3-5-------------------|

End 

|--2---3---4---5----6-----7----8----9----10----11----12----13----14----15----16----|
|----------------------------------------------------------------------------------|
|-0--0---0---0---0----0-----0----0-----0-----0-------------------------------------|

_____________________________________________________________

Tab by Kornichon`: Naheulbeuk_Dwarf@hotmail.com
Comments