Six Feet Under - The Enemy Inside Chords & Tabs

 

The Enemy Inside Chords & Tabs

Six Feet Under Chords & Tabs

Version: 1 Type: Tab 0 ratings
1 star 2 stars 3 stars 4 stars 5 stars
comments

The Enemy Inside Tab

   
                        SIX FEET UNDER - THR ENEMY INSIDE
                            From the Album - HAUNTED
                          Copyright: METAL BLADE 1995
                           Version 3.0 - Nov,19 2001
 

Transcribed by: James Williams (Inverted)

For Questions, Comments, Newest Version, or Corrections contact
Inverted: at Inverted_one@hotmail.com
 
Check Out Death8699.com Metaltabs.com or dsrmusic.com for More
Transcriptions:http://www.Death8699.com http://www.Metaltabs.com


 .  - palm mute           /  - slide up to
 \  - slide down to       ~  - vibrato
 h  - hammer on           b  - Bend
 p  - pull off            Suffixes for bend
 t  - tap                 f  - full bend    h - half bend 
 ph - pinched harmonic    q  - quarter bend t - tap bend
 *  - see comment         ^  - Hold bend    r release bend
 x  - Stuccatto           ~  - vibrato bend 
 ,  - slight palm mute    () - ghost note, sustained note
 "  - tremolo note        <> - Trill  

 THE ENEMY INSIDE...

 Tuning: "D"G"C"F"A"D"
[ Tab from: http://www.guitartabs.cc/tabs/s/six_feet_under/the_enemy_inside_tab.html ]
Intro (Flows straight into Riff 1)
|------------------------------------|
|------------------------------------|
|------------------------------------|
|------------------------------------|
|------------------------------------|
|--00000000000000000000000000000000--|
pm ................,,,,,,,,,,,,,,,,

Riff 1
|-------------------------------------------------|
|-------------------------------------------------|
|-------------------------------------------------|
|--------------------------------------------2----|
|--------------------------------------------2----|
|--0""-1"-2"-3""-0""-1"-2"-3""-0""-1"-2"-3""-0----|

Riff 2
|--------------------------------------------------|
|--------------------------------------------------|
|--------------------------------------------------|
|-------6---------7------------6--7----------6--5--|
|--5----4----6----5------------4--5----------4--3--|
|--3---------4---------000000--------000000--------|
pm                     ......        ......

Riff 3
|---------------------------------------------------|
|---------------------------------------------------|
|---------------------------------------------------|
|---------------------------------------------------|
|---------------------------------------------------|
|--0""""-2"-3"-0""""-2"-3"-0""""-2"-3"-0""""-2"-3"--|

 Check out my other tabs by S.F.U, Obituary, Hypocrisy
and Grave.
Comments