Six Feet Under - Suffering In Ecstasy Chords & Tabs

 

Suffering In Ecstasy Chords & Tabs

Six Feet Under Chords & Tabs

Version: 2 Type: Bass Tab 0 ratings
1 star 2 stars 3 stars 4 stars 5 stars
comments

Suffering In Ecstasy Bass Tab

			"Suffering in Ecstasy"
                                                           by
                                                    Six Feet Under

>From the album "Haunted"
Transcribed by:  Jay Misch

         This is an easy song if you can play fast enough. Any questions or comments
 go to riotbass@aol.com. Tell me I did a good job.
  

			Tune down 1 step.

                                               

                                             INTRO RIFF
  G  |-----------|--------------------------------------------------------------------------|
  D  |-----------|-*---------------------------------------------------------------------*--|             
  A  |-----------|-*---------------------------------------------------------------------*--|    x 3
  E  |--5-\-7-/--|---0-0-0-0-0-0-0-0-0-0-0-0-0-0-0-0-0-0-0-0-0-0-0-0-0-0-0-0-0-0-0-0-1------|
                   <====  Don't pick the 7.
  
 G |-------------------------------------|
 D |-------------------------------------|
 A |-------------------------------------|
 E |-0-0-0-0-0-0-0-0-0-0-0-0-0-0-0-0-0---|

[ Tab from: http://www.guitartabs.cc/tabs/s/six_feet_under/suffering_in_ecstasy_btab_ver_2.html ]
                                             
                                         RIFF 1
  G  |--------------------------------------------------------------------|
  D  |--------------------------------------------------------------------|             
  A  |--------------------------------------------------------------------|        
  E  |--0-0-0-0-0-0-0-0-0-0-0-0-0-0-0-0-0-0-0-0-0-0-0-0-0-0-0-0-0-0-0-0-1-|



                                     RIFF 2
  G  |--------------------------------------------------|
  D  |--------------------------------------------------|             
  A  |--------------------------------------------------|  
  E  |--3-----9-----7-----5-----3-----9-----7-----5-----|


  G  |----------------------------------------------------|
  D  |----------------------------------------------------|             
  A  |----------------------------------------------------|  
  E  |--5-----11-----9-----7-----5-----11-----9-----7-----|



                                         RIFF 3
  G  |------------------------------------------------------|
  D  |------------------------------------------------------|             
  A  |------------------------------------------------------|  
  E  |--7-----13-----11-----9-----7-----13-----11-----9-----|


  G  |--------------------------------------------------------|
  D  |--------------------------------------------------------|             
  A  |--------------------------------------------------------|  
  E  |--9-----15-----13-----11-----9-----15-----13-----11-----|




   INTRO
  
   RIFF 1    x 8
  
   RIFF 2    
  
   RIFF 1    x 4

   RIFF 2
   
   RIFF 3

   RIFF 1    x 4
 
   RIFF 2   

   RIFF 1   to Fade










Comments