Six Feet Under - Revenge Of The Zombie Chords & Tabs

 

Revenge Of The Zombie Chords & Tabs

Six Feet Under Chords & Tabs

Version: 1 Type: Bass Tab 0 ratings
1 star 2 stars 3 stars 4 stars 5 stars
comments

Revenge Of The Zombie Bass Tab

   
Ok, because I'm so bored today, I figured, why the hell not type up this
awesome song, so other people could have fun with it as well.  And just
because I'm such a nice guy, I'm gonna put it in both four AND five string
format.  Damn my niceness is so overwhelming.

Ok five string first

Standard tuning BEADG
I'm only putting in the important strings, so make sure you're on the right
ones


Intro:  Repeat a few times
A:--6-6-6-6-6-7--6-6-6-6-6----
E:-------------------------8--
B:----------------------------

Verse and the "Butcher's knife..." part:
A:---------------------------------
E:----------------1-1-1-2-2-2------
B:--3-3-3-3-3-3-3-------------4-4--
[ Tab from: http://www.guitartabs.cc/tabs/s/six_feet_under/revenge_of_the_zombie_btab.html ]
Chorus:
A:----------------------------------
E:-----------------2-2-2-1-1-1------
B:-3-3-3-3-3-3-3-3-------------4-4--

And now, 4 string time:

Dropped-D

Intro:
D:--1-1-1-1-2--1-1-1-1----
A:---------------------3-- 
D:------------------------

Verse and "Butcher's knife..." part
D:----------------------------------
A:----------------------------------
D:-0-0-0-0-0-0-0-0-3-3-3-4-4-4-1-1--

Chorus
D:----------------------------------
A:----------------------------------
D:-0-0-0-0-0-0-0-0-4-4-4-3-3-3-1-1--

I'm not completely sure about the chorus part, but, oh well, no one's perfect

E-mail me with shit at mansonfreakboy@hotmail.com
Visit my site at: http://members.xoom.com/bishnu234
Comments