Six Feet Under - One Bullet Left Chords & Tabs

 

One Bullet Left Chords & Tabs

Six Feet Under Chords & Tabs

Version: 1 Type: Tab 0 ratings
1 star 2 stars 3 stars 4 stars 5 stars
comments

One Bullet Left Tab

   
Six Feet Under - One Bullet Left
                      From the album True Carnage
                       Copyright 2001 Metal Blade
                        Version 1.0 - July 2002

  Transcribed by: BozoNightmare

  Comments, Questions, Corrections,mail/messenger SixStringSlaughter@hotmail.com

  Notes: The "0R" can be played just as a palm
         muted 0 chord if your amp has lots of gain.

  Notation:
  .  - Palm mute
  R  - Rest (i.e. abrupt stop)
  h  - Hammeron
  /  - Slide
  () - Let note ring


  Tuning: "Drop A" (A E A D F# B)


    INTRO:

    1       2       3       4       1       2       3       4      etc
  |------------------------------------------------------------------|
  |------------------------------------------------------------------|
  |------------------------------------------------------------------|
  |-0-0-0-0-0-0-0-R---------0-0-0-0-6------(6)-----(6)-----(6)-------|
  |-0-0-0-0-0-0-0-R---------0-0-0-0-6------(6)-----(6)-----(6)-------|
  |-0-0-0-0-0-0-0-R---------0-0-0-0-6------(6)-----(6)-----(6)-------|
    . . . . . .             . . . .

  |------------------------------------------------------------------|
  |------------------------------------------------------------------|
  |------------------------------------------------------------------|
  |-0-0-0-0-0-0-0-R---------0-0-0-0-6-------0-0-1-------0-0-8--------|
  |-0-0-0-0-0-0-0-R---------0-0-0-0-6-------0-0-1-------0-0-8--------|
  |-0-0-0-0-0-0-0-R---------0-0-0-0-6-------0-0-1-------0-0-8--------|
    . . . . . .             . . . .         . .         . .


    Add 1:

  |---------------------------|
  |---------------------------|
  |---------------------------|
  |-0-0-3-------0-0-9-------3-|
  |-0-0-3-------0-0-9-------3-|
  |-0-0-3-------0-0-9-------3-|
    . .         . .


    VERSE:

  |------------------------------------------------------------------|
  |------------------------------------------------------------------|
  |------------------------------------------------------------------|
  |-0-------0----0----0-0-0h3-------0-------0----0----0-0-3/1--------|
  |-0-------0----0----0-0-0h3-------0-------0----0----0-0-3/1--------|
  |-0-------0----0----0-0-0h3-------0-------0----0----0-0-3/1--------|
            .         . .                   .         . .

  |------------------------------------------------------------------|
  |------------------------------------------------------------------|
  |------------------------------------------------------------------|
  |-0-------0----0----0-0-0h3-------3-------3----3----3-3-3/1--------|
  |-0-------0----0----0-0-0h3-------3-------3----3----3-3-3/1--------|
  |-0-------0----0----0-0-0h3-------3-------3----3----3-3-3/1--------|
            .         . .                   .         . .


    CHORUS:
[ Tab from: http://www.guitartabs.cc/tabs/s/six_feet_under/one_bullet_left_tab.html ]
  |------------------------------------------------------------------|
  |------------------------------------------------------------------|
  |------------------------------------------------------------------|
  |-5------(5)-----(5)------6-------3-------4-------1------(1)-------|
  |-5------(5)-----(5)------6-------3-------4-------1------(1)-------|
  |-5------(5)-----(5)------6-------3-------4-------1------(1)-------|

    Riff A:

  |------------------------------------------------------------------|
  |------------------------------------------------------------------|
  |------------------------------------------------------------------|
  |-0-0-0-0-0-0-0-0-0-R-----0-0-0-0-0-0-0-0-0-R-----0-0-0-0-0-R------|
  |-0-0-0-0-0-0-0-0-0-R-----0-0-0-0-0-0-0-0-0-R-----0-0-0-0-0-R------|
  |-0-0-0-0-0-0-0-0-0-R-----0-0-0-0-0-0-0-0-0-R-----0-0-0-0-0-R------|
    . . . . . . . .         . . . . . . . .         . . . .

  |------------------------------------------------------------------|
  |------------------------------------------------------------------|
  |------------------------------------------------------------------|
  |-5------(5)-----(5)------6-------3------(3)-----/6------(6)-------|
  |-5------(5)-----(5)------6-------3------(3)-----/6------(6)-------|
  |-5------(5)-----(5)------6-------3------(3)-----/6------(6)-------|

    Repeat Riff A

  |------------------------------------------------------------------|
  |------------------------------------------------------------------|
  |------------------------------------------------------------------|
  |-5------(5)-----(5)------6-------3------(3)------1------(1)-------|
  |-5------(5)-----(5)------6-------3------(3)------1------(1)-------|
  |-5------(5)-----(5)------6-------3------(3)------1------(1)-------|

    Repeat Riff A

  |------------------------------------------------------------------|
  |------------------------------------------------------------------|
  |------------------------------------------------------------------|
  |-5------(5)-----(5)-----(5)------3------(3)------1------(1)-------|
  |-5------(5)-----(5)-----(5)------3------(3)------1------(1)-------|
  |-5------(5)-----(5)-----(5)------3------(3)------1------(1)-------|

    Repeat Riff A


    OUTRO:

    1       2       3       1       2       3       etc
  |--------------------------------------------------|
  |--------------------------------------------------|
  |--------------------------------------------------|
  |-0-0-0-0-0-0-0-0-0-R-----0-0-0-0-0-0-0-0-0-R------|
  |-0-0-0-0-0-0-0-0-0-R-----0-0-0-0-0-0-0-0-0-R------|
  |-0-0-0-0-0-0-0-0-0-R-----0-0-0-0-0-0-0-0-0-R------|
    . . . . . . . .         . . . . . . . .


  Song order:

  INTRO        x 3
  Add 1        x 1

  VERSE        x 4
  CHORUS       x 1

  INTRO        x 1
  Add 1        x 1

  VERSE        x 4
  CHORUS       x 1

  Riff A       x 4
  OUTRO        x 20

  End
Comments