Six Feet Under - Knife Gun Axe Chords & Tabs

 

Knife Gun Axe Chords & Tabs

Six Feet Under Chords & Tabs

Version: 1 Type: Bass Tab

Knife Gun Axe Bass Tab

D||--------------------||------------------|------------------|
A||*------------------*||------------------|------------------|
E||*------------------*||------------------|------------------|
A||--------------------||------------------|------------------|



-------------------|-------------------|-------------------|-------------------|
-------------------|-------------------|-------------------|-------------------|
-------------------|-------------------|-------------------|-------------------|
--0----------------|--3----------------|--2----------------|--5----------------|



-------------------|-------------------|-------------------|-------------------|
-------------------|-------------------|-------------------|-------------------|
-------------------|-------------------|-------------------|-------------------|
--0----------------|--3----------------|--2----------------|--6----------------|



-------------------|-------------------|-------------------|-------------------|
-------------------|-------------------|-------------------|-------------------|
-------------------|-------------------|-------------------|-------------------|
--0----------------|--3----------------|--2----------------|--5----------------|



-------------------|-------------------|-------------------|-------------------|
-------------------|-------------------|-------------------|-------------------|
-------------------|-------------------|-------------------|-------------------|
--0----------------|--3----------------|--2----------------|--6----------------|



|-------------------------|----------------------|------------------------|
|*------------------------|----------------------|------------------------|
|*------------------------|----------------------|------------------------|
|---0--0--0--0--1----0----|----0----0--1----0----|--0--0--0--0--1----0----|



----------------------|------------------------|----------------------|
----------------------|------------------------|----------------------|
----------------------|------------------------|----------------------|
----0----0--3----4----|--0--0--0--0--1----0----|----0----0--1----0----|



------------------------|-----------------------||-------------------|
------------------------|----------------------*||-------------------|
------------------------|----------------------*||-------------------|
--0--0--0--0--1----0----|----0----0--4----3-----||--0----------------|



-------------------|-------------------|-------------------|-------------------|
-------------------|-------------------|-------------------|-------------------|
-------------------|-------------------|-------------------|-------------------|
--3----------------|--2----------------|--5----------------|--0----------------|



-------------------|-------------------|-------------------|-------------------|
-------------------|-------------------|-------------------|-------------------|
-------------------|-------------------|-------------------|-------------------|
--3----------------|--2----------------|--6----------------|--0----------------|



-------------------|-------------------|-------------------|-------------------|
-------------------|-------------------|-------------------|-------------------|
-------------------|-------------------|-------------------|-------------------|
--3----------------|--2----------------|--5----------------|--0----------------|



-------------------|-------------------|-------------------|
-------------------|-------------------|-------------------|
-------------------|-------------------|-------------------|
--3----------------|--2----------------|--6----------------|



|-------------------------|----------------------|------------------------|
|*------------------------|----------------------|------------------------|
|*------------------------|----------------------|------------------------|
|---0--0--0--0--1----0----|----0----0--1----0----|--0--0--0--0--1----0----|



----------------------|------------------------|----------------------|
----------------------|------------------------|----------------------|
----------------------|------------------------|----------------------|
----0----0--3----4----|--0--0--0--0--1----0----|----0----0--1----0----|



------------------------|-----------------------||-------------------|
------------------------|----------------------*||-------------------|
------------------------|----------------------*||-------------------|
--0--0--0--0--1----0----|----0----0--4----3-----||--0----------------|



-------------------|-------------------|-------------------|-------------------|
-------------------|-------------------|-------------------|-------------------|
-------------------|-------------------|-------------------|-------------------|
--3----------------|--2----------------|--5----------------|--0----------------|



-------------------|-------------------|-------------------|-------------------|
-------------------|-------------------|-------------------|-------------------|
-------------------|-------------------|-------------------|-------------------|
--3----------------|--2----------------|--6----------------|--0----------------|



-------------------|-------------------|-------------------|-------------------|
-------------------|-------------------|-------------------|-------------------|
-------------------|-------------------|-------------------|-------------------|
--3----------------|--2----------------|--5----------------|--0----------------|



-------------------|-------------------|-------------------|-------------------|
-------------------|-------------------|-------------------|-------------------|
-------------------|-------------------|-------------------|-------------------|
--3----------------|--2----------------|--1----------------|--0----------------|



------------------|------------------|------------------|------------------|
------------------|------------------|------------------|------------------|
------------------|------------------|------------------|------------------|
------------------|------------------|------------------|------------------|



------------------|------------------|------------------|-------------------|
------------------|------------------|------------------|-------------------|
------------------|------------------|------------------|-------------------|
------------------|------------------|------------------|--0----------------|



-------------------|-------------------|-------------------|-------------------|
-------------------|-------------------|-------------------|-------------------|
----------1--------|--0----------------|-------------------|-------------------|
-------------------|-------------------|----------3--------|--4----------------|



------------------|--------------------|-------------------|-------------------|
------------------|--------------------|-------------------|-------------------|
------------------|--------------------|-------------------|-------------------|
------------------|--2------------3----|----------2--------|--0----------------|



-------------------|-------------------|-------------------|-------------------|
-------------------|-------------------|-------------------|-------------------|
----------1--------|--0----------------|-------------------|-------------------|
-------------------|-------------------|----------3--------|--4----------------|


[ Tab from: http://www.guitartabs.cc/tabs/s/six_feet_under/knife_gun_axe_btab.html ]
------------------|--------------------|-------------------|-------------------|
------------------|--------------------|-------------------|-------------------|
------------------|--------------------|-------------------|-------------------|
------------------|--3------------2----|----------3--------|--0----------------|



-------------------|-------------------|-------------------|-------------------|
-------------------|-------------------|-------------------|-------------------|
----------1--------|--0----------------|-------------------|-------------------|
-------------------|-------------------|----------3--------|--4----------------|



------------------|--------------------|-------------------|-------------------|
------------------|--------------------|-------------------|-------------------|
------------------|--------------------|-------------------|-------------------|
------------------|--2------------3----|----------2--------|--0----------------|



-------------------|-------------------|-------------------|-------------------|
-------------------|-------------------|-------------------|-------------------|
----------1--------|--0----------------|-------------------|-------------------|
-------------------|-------------------|----------3--------|--4----------------|



------------------|--------------------|-------------------|
------------------|--------------------|-------------------|
------------------|--------------------|-------------------|
------------------|--3------------2----|----------3--------|



------------------------|----------------------|------------------------|
------------------------|----------------------|------------------------|
------------------------|----------------------|------------------------|
--0--0--0--0--1----0----|----0----0--1----0----|--0--0--0--0--1----0----|



----------------------|------------------------|----------------------|
----------------------|------------------------|----------------------|
----------------------|------------------------|----------------------|
----0----0--3----4----|--0--0--0--0--1----0----|----0----0--1----0----|



------------------------|----------------------|----------|
------------------------|----------------------|----------|
------------------------|----------------------|----------|
--0--0--0--0--1----0----|----0----0--4----3----|----------|



|-------------------------|----------------------|------------------------|
|*------------------------|----------------------|------------------------|
|*------------------------|----------------------|------------------------|
|---0--0--0--0--1----0----|----0----0--1----0----|--0--0--0--0--1----0----|



----------------------|------------------------|----------------------|
----------------------|------------------------|----------------------|
----------------------|------------------------|----------------------|
----0----0--3----4----|--0--0--0--0--1----0----|----0----0--1----0----|


                                                2x
------------------------|-----------------------||-------------------|
------------------------|----------------------*||-------------------|
------------------------|----------------------*||-------------------|
--0--0--0--0--1----0----|----0----0--4----3-----||--0----------------|



-------------------|-------------------|-------------------|-------------------|
-------------------|-------------------|-------------------|-------------------|
-------------------|-------------------|-------------------|-------------------|
--3----------------|--2----------------|--5----------------|--0----------------|



-------------------|-------------------|-------------------|-------------------|
-------------------|-------------------|-------------------|-------------------|
-------------------|-------------------|-------------------|-------------------|
--3----------------|--2----------------|--6----------------|--0----------------|



-------------------|-------------------|-------------------|-------------------|
-------------------|-------------------|-------------------|-------------------|
-------------------|-------------------|-------------------|-------------------|
--3----------------|--2----------------|--5----------------|--0----------------|



-------------------|-------------------|-------------------|-------------------|
-------------------|-------------------|-------------------|-------------------|
-------------------|-------------------|-------------------|-------------------|
--3----------------|--2----------------|--1----------------|--0----------------|



-------------------|-------------------|-------------------|-------------------|
-------------------|-------------------|-------------------|-------------------|
-------------------|-------------------|-------------------|-------------------|
--3----------------|--2----------------|--5----------------|--0----------------|



-------------------|-------------------|-------------------|-------------------|
-------------------|-------------------|-------------------|-------------------|
-------------------|-------------------|-------------------|-------------------|
--3----------------|--2----------------|--6----------------|--0----------------|



-------------------|-------------------|-------------------|-------------------|
-------------------|-------------------|-------------------|-------------------|
-------------------|-------------------|-------------------|-------------------|
--3----------------|--2----------------|--5----------------|--0----------------|



-------------------|-------------------|-------------------|-------------------|
-------------------|-------------------|-------------------|-------------------|
-------------------|-------------------|-------------------|-------------------|
--3----------------|--2----------------|--1----------------|--0----------------|



-------------------|-------------------|-------------------|-------------------|
-------------------|-------------------|-------------------|-------------------|
-------------------|-------------------|-------------------|-------------------|
--3----------------|--2----------------|--5----------------|--0----------------|



-------------------|-------------------|-------------------|-------------------|
-------------------|-------------------|-------------------|-------------------|
-------------------|-------------------|-------------------|-------------------|
--3----------------|--2----------------|--6----------------|--0----------------|



-------------------|-------------------|-------------------|-------------------|
-------------------|-------------------|-------------------|-------------------|
-------------------|-------------------|-------------------|-------------------|
--3----------------|--2----------------|--5----------------|--0----------------|



-------------------|-------------------|-------------------|-------------------|
-------------------|-------------------|-------------------|-------------------|
-------------------|-------------------|-------------------|-------------------|
--3----------------|--2----------------|--1----------------|--0----------------|



-------------------|-------------------|-------------------|-------------------|
-------------------|-------------------|-------------------|-------------------|
-------------------|-------------------|-------------------|-------------------|
--3----------------|--2----------------|--5----------------|--0----------------|



-------------------|-------------------|-------------------|-------------------|
-------------------|-------------------|-------------------|-------------------|
-------------------|-------------------|-------------------|-------------------|
--3----------------|--2----------------|--6----------------|--0----------------|



------------------||
------------------||
------------------||
------------------||