Six Feet Under - Human Target Chords & Tabs


Human Target Chords & Tabs

Six Feet Under Chords & Tabs

Version: 1 Type: Bass Tab 0 ratings
1 star 2 stars 3 stars 4 stars 5 stars

Human Target Bass Tab

This is the Human Target Bass Tab but the Guitar Tab is the same if you
take these root notes and use them in a root/fifth power chord. 
[ Tab from: ]
I didn't put the order of the parts but all the riffs are there.
Tune down a whole step to D.
    play three times
 F ----------------------------||--------------------------------||
 G -----------------------4----||--------------------------------||
 D -0-0-0-0-0---3-3-3-3-3---3--||-0-0-0-0-0---1-1-1-1-1---1-1-1--||
F ---------------------------------------------------------------------- 
C ----------------------------------------------------------------------
G ---------------------------------------------------------------------- 
D -0-0-0-0-0-----0-0-0-0-0---0-0-1------0-0-0-0-0-----0-0-0-0-0---0-0-6-
      play four times                      play four times
F ---------------------------------||----------------------------------|
C ---------------------------------||----------------------------------|
G ---------------------------------||----------------------------------|
D -0-0-0-4-4-4-3-3-3-1-1-1-1-1-1-1-||-0-0-0-4-4-4-3-3-3-4-4-4--6-6-6-6-|
By:  John McClanahan