Six Feet Under - Death Or Glory Chords & Tabs

 

Death Or Glory Chords & Tabs

Six Feet Under Chords & Tabs

Version: 2 Type: Bass Tab 0 ratings
1 star 2 stars 3 stars 4 stars 5 stars
comments

Death Or Glory Bass Tab

                Death Or Glory-Six Feet Under(Holocaust)
         Tabbed by Jotun_138
E mail astrozombie138@hotmail.com
Totally Easy song, but Heavy as hell, Figure out where the riffs go
yourself by Listening to it, pretty basic.


        Intro                                     Riff 1                
G---||--------------------------------------|---------------------------
D---||--------------------------------------|---------------------------
A---||--1--1--1--1--1--1--3--3--3--3--3--3--|--6\5----------------------
D---||--------------------------------------|-------0--0--0--0--0--0----
                                                                        

                                                                        
G-----------------------------------------------------------------------
D-----------------------------------------------------------------------
A---6\5--------------------6\5--------------------1--1--3--6\5----------
D--------0--0--0--0--0--0-------0--0--0--0--0--0----------------0--0----
                                                                        

                                                                        
G-----------------------------------------------------------------------
D-----------------------------------------------------------------------
A---------------6\5--------------------6\5--------------------1--1------
D---0--0--0--0-------0--0--0--0--0--0-------0--0--0--0--0--0------------
                                                                        

          Riff 3                                                        
G------|----------------------------------------------------------------
D------|----------------------------------------------------------------
A---3--|----------------------------------------------------------------
D------|--7-----7--3-----3--5--3--0-----0--2--3-----3--5--5-----7--7----
                                                                        
[ Tab from: http://www.guitartabs.cc/tabs/s/six_feet_under/death_or_glory_btab_ver_2.html ]
       Riff 4 (Bridge)                                                  
G---|-------------------------------------------------------------------
D---|-------------------------------------------------------------------
A---|-------------------------------------------------------------------
D---|--0--0--5--0--0--7--0--0--8--0--0--3--0--0--7-----0--0--5--0--0----
                                                                        

                                                                        
G-----------------------------------------------------------------------
D-----------------------------------------------------------------------
A---------------------------------6\5--------------------6/5------------
D---7--0--0--8--0--0--3--0--0--7-------0--0--0--0--0--0-------0--0------
                                                                        

                   Riff 5 (guitar solo)                                 
G---------------|-------------------------------------------------------
D---------------|-------------------------------------------------------
A---------------|-------------------------------------------------------
D---0--0--0--0--|--0--0--0--0--0--0--2--3--3--3--5--3--2--3--0--0--0----
                                                                        

                                                                        
G------------------------------------|----------------------------------
D------------------------------------|----------------------------------
A------------------------------------|----------------------------------
D---0--0--0--2--3--3--3--5--3--2--3--|----------------------------------
                                                                        



========================================================================
==            Created with a demo version of BUCKET O' TAB            ==
==              tablature creation software for Windows               ==
==                   http://www.his.com/~gse/bucket                   ==
========================================================================
Comments