Six Feet Under - Amerika The Brutal Chords & Tabs

 

Amerika The Brutal Chords & Tabs

Six Feet Under Chords & Tabs

Version: 1 Type: Bass Tab 0 ratings
1 star 2 stars 3 stars 4 stars 5 stars
comments

Amerika The Brutal Bass Tab

   
                          AMERIKA THE BRUTAL (Bassline)
                          As recorded by Six Feet Under
                     (From the 2003 Album BRINGER OF BLOOD)

Words by Chris Barns
Music by Six Feet Under

Transcribed by James Williams (Inverted)
Inverted_One@hotmail.com

Gtr I (C F Bb Eb)

 Intro
  Brutal Death Metal Q=94
 4/4
  Gtr I
  S S +S  S S S S S S S S S S S S S     S S S S S S S S S S S S S S S S   5x
|-----------------------------------||------------------------------------||
|-----------------------------------||o----------------------------------o||
|-----------------------------------||o----------------------------------o||
|-0-0-(0)-3-3-3-5-5-5-5-6-6-5-5-6-6-||--0-0-0-3-3-3-5-5-5-5-6-6-5-5-6-6---||


   Verse                                   Pre-Chorus
    $
    S S S S S S S S S S S S S S S S  4x     S S S S S S S S S S S S S S S S  4x
||-----------------------------------||-||-----------------------------------||
||o---------------------------------o||-||o---------------------------------o||
||o---------------------------------o||-||o---------------------------------o||
||--0-0-0-3-3-3-5-5-5-5-6-6-5-5-6-6--||-||--0-0-0-3-3-3-5-5-5-5-6-6-5-5-6-6--||


   Chorus
    Q=92
    S S S E. S S S E. E E   S S S E. S S S E. E E
||------------------------|------------------------||
||o-----------------------|-----------------------o||
||o-------------------2-3-|-------------------3-2-o||
||--2-1-0-1--2-1-0-1------|-2-1-0-1--2-1-0-1-------||

[ Tab from: http://www.guitartabs.cc/tabs/s/six_feet_under/amerika_the_brutal_btab.html ]
   Bridge
D.S.
     D5 C#5           C5 B5
     E. H.      +S    E. H.      +S   4x
||------------------|-----------------||
||o--7--6-------(6)-|-5--4-------(4)-o||
||o--5--4-------(4)-|-3--2-------(2)-o||
||------------------|-----------------||


    S S S S S S S S S S S S S S S S   S S S S S S S S S S S S S S S S
||----------------------------------|----------------------------------|
||o---------------------------------|----------------------------------|
||o---------------------------------|----------------------------------|
||--0-0-0-0-0-0-0-0-0-0-0-0-0-0-0-0-|-0-0-0-0-0-0-0-0-2s3-0-2s3-0-2s3--|


  S S S S S S S S S S S S S S S S   S S S S S S S S S S S S S S S S
|---------------------------------|----------------------------------||
|---------------------------------|---------------------------------o||
|---------------------------------|-----------------2s1---2s1---2s1-o||
|-0-0-0-0-0-0-0-0-0-0-0-0-0-0-0-0-|-0-0-0-0-0-0-0-0-----0-----0------||


                          9/8
    S S S H    +S  E E  3x S S S H    +S  S S S S S S
||----------------------||-----------------------------|
||o--------------------o||-----------------------------|
||o--------------------o||-----------------------------|
||--3-2-0-2----(2)-3-3--||-3-2-0-2----(2)-2-2-2-2-2-2--|


   Verse & Pre-Chorus
    Q=94
   4/4
    S S S S S S S S S S S S S S S S  8x     S S S S S S S S S S S S S S S S  4x
||-----------------------------------||-||-----------------------------------||
||o---------------------------------o||-||o---------------------------------o||
||o---------------------------------o||-||o---------------------------------o||
||--0-0-0-3-3-3-5-5-5-5-6-6-5-5-6-6--||-||--0-0-0-3-3-3-5-5-5-5-6-6-5-5-6-6--||


   Out-Chorus
    S S S E. S S S E. E E   S S S E. S S S E. E E
||------------------------|------------------------||
||o-----------------------|-----------------------o||
||o-------------------2-3-|-------------------3-2-o||
||--2-1-0-1--2-1-0-1------|-2-1-0-1--2-1-0-1-------||
Comments