Sisters Of Mercy - Walk Away Chords & Tabs

 

Walk Away Chords & Tabs

Sisters Of Mercy Chords & Tabs

Version: 2 Type: Bass Tab 0 ratings
1 star 2 stars 3 stars 4 stars 5 stars
comments

Walk Away Bass Tab

"Walk Away" by The Sisters of Mercy (from the album "First And Last And Always")
================================================================================

Transcribed by: Frank Tower (towerf@Sol.ACS.UWOsh.Edu)

Riff 1:

G|--------------------------------
D|--------------------------------
A|-0---0-3---3-5---5-8---8-7-5-3--
E|--------------------------------


Riff 2:

G|-----------------|-----------------|-----------------|------------------
D|-----------------|-----------------|-----------------|------------------
A|-0-0-0-0-0-0-0-0-|-3-3-3-3-3-3-3-3-|-5-5-5-5-5-5-5-0-|-8-8-8-0-8-7-5-3--
E|-----------------|-----------------|-----------------|------------------


Riff 3:

G|-----------------|-----------------|-----------------|------------------
D|-----------------|-----------------|-----------------|------------------
A|-0-0-0-0-0-0-0-0-|-3-3-3-3-3-3-3-3-|-2-2-2-2-2-2-2-2-|-0-2-3-2--0--5-3--
E|-----------------|-----------------|-----------------|------------------


Riff 4:
[ Tab from: http://www.guitartabs.cc/tabs/s/sisters_of_mercy/walk_away_btab_ver_2.html ]
G|-----------------|-----------------|-----------------|------------------
D|-----------------|-----------------|-----------------|------------------
A|-0-0-0-0-0-0-0-0-|-3-3-3-3-3-3-3-3-|-2-2-2-2-2-2-2-0-|-5-5-5-5-3-3-3-3--
E|-----------------|-----------------|-----------------|------------------


Riff 5:

G|-----------------|-----------------|-----------------|-
D|-----------------|-----------------|-----------------|-
A|-0-0-0-0-0-0-0-0-|-3-3-3-3-3-3-3-3-|-5-5-5-5-5-5-5-0-|-
E|-----------------|-----------------|-----------------|-

G|----------------------------------------------------
D|----------------------------------------------------
A|-8-8-8---7-7-7---5-5---3-3-3---2-2-2---3-3---0-0-0--
E|----------------------------------------------------



                            How to play it
                            --------------

             Intro       Verse      Chorus                        Chorus
    Bass:   1 1 2 2  |  3 3 3 3  |  -2- -2-  |  2 2 3 3  3  3  |  -2- -2-

              Verse       Chorus
    Bass:    4  4 2 2  |  -2- -2-  |  2  2  5





Comments