Sisters Of Mercy - Torch Chords & Tabs

 

Torch Chords & Tabs

Sisters Of Mercy Chords & Tabs

Version: 1 Type: Bass Tab 0 ratings
1 star 2 stars 3 stars 4 stars 5 stars
comments

Torch Bass Tab

   
"Torch" by The Sisters of Mercy (from the album "Floodland")
============================================================

Transcribed by Elissa Feit (feit@cs.Buffalo.EDU)


E             C
Am           Bm
        G                D              A
E            G                 C                  Bm
        G     D         A


C#m                      B
C#m                    B
                D              
          C         Em

[ Tab from: http://www.guitartabs.cc/tabs/s/sisters_of_mercy/torch_btab.html ]
*** The bass for the above is simply playing the root note of each
chord (if the chord is a C, play a C; if the chord is a C-, play a C).
(If you don't what notes are what, e-mail me and I will give you a
*quick* theory lesson... this offer for a short time only!)

    D                     C                       G
    1  &  2  &   3   &  4  & 1  &   2  & 3  &  4   &  
G --------------------------|------------------------|
D --------------------------|----------------------4-|
A --5--------5---7---5--7--3|----------3-5--3--5-----|
E --------------------------|------------------------|

     G                Bm
    1 &  2 &  3 &   4 &    1  &  2  &    1---2---3
G -----------------------|---------------------------|
D --5---------5-7---5-4--|---------------5---4-------|
A ---------5-------------|----------5------------5---|
E -----------------------|---------------------------|

                      C                    Em
    1 & 2 & 3 & 4 &   1   & 2 &   3 &   4  &    
G ------------------|-------------------------|
D ----------4---4-2-|---------2---4-2---4-s9--|  
Comments