Sisters Of Mercy - Some Kind Of Stranger Chords & Tabs

 

Some Kind Of Stranger Chords & Tabs

Sisters Of Mercy Chords & Tabs

Version: 1 Type: Chords 0 ratings
1 star 2 stars 3 stars 4 stars 5 stars
comments

Some Kind Of Stranger Chords

   
#----------------------------------PLEASE NOTE---------------------------------#
#This file is the author's own work and represents their interpretation of the #
#song. You may only use this file for private study, scholarship, or research. #
#------------------------------------------------------------------------------##
From: mcdonghj@unix2.tcd.ie (Nascent Virion.....)


This is as far as I could get with the intro to Some Kind of Stranger.
[ Tab from: http://www.guitartabs.cc/tabs/s/sisters_of_mercy/some_kind_of_stranger_crd.html ]
||--3--3---5--1---3--1--0------------------------------------------------------|
||--0--------------------------------------------------------------------------|
||--0--------------------------------------------------------------------------|
||--0--------------------------------------------------------------------------|
||--------------------------0--------------------------------------------------|
||-----------------------------------------------------------------------------|
The chord sequence at the start is :

G ///////  Am// Am7/ Am/ C// D////

I think....

The Chorus is:

D C B A

That I hope is enough to get you going....

Something Fast:
```````````````
 Am //// E// C/     - Verse
 G  //// Bm/// Em//// - Chorus.
	 End of chorus: Dsus2 slide up 2 frets
	 ie
     e ||----0--0--0-|
    b ||----3--5--5--|
    g ||----2--4--4--|

I was Wrong:
~~~~~~~~~~~~
Verse: B            D            A
       B            D            A       E

Chorus: B            D
	B            D
Comments