Sisters Of Mercy - Lights Chords & Tabs

 

Lights Chords & Tabs

Sisters Of Mercy Chords & Tabs

Version: 1 Type: Bass Tab 0 ratings
1 star 2 stars 3 stars 4 stars 5 stars
comments

Lights Bass Tab

   
"Lights" by The Sisters of Mercy (from the album "Some Girls Wander by Mistake")
================================================================================

transcribed by jonas-ol@dsv.su.se


riff #1a
G -----------------------
D -----------------------
A -----------------------
E -2--3-0--2-3--3-5-2--0-

riff #1b
G -----------------------------------------------
D -----------------------------------------------
A -----------------------------------------------
E -22222222-3-00000000-2-33333333-3-5-22222222-0-

riff #1c
G ---
D ---
A ---
E -0-

riff #2a
G ----------------------------------------------------------
D ----------------------------------------------------------
A ----------------------------------------------------------
E -4-4-0-4-0-4-0-5-5-0-5-0-5-0-8-8-0-8-0-8-10-7-7-0-7-0-7-0-

riff #2b
G ----------------------------------------------------------
D ----------------------------------------------------------
A ----------------------------------------------------------
E -0-0-0-0-0-0-0-5-5-0-5-0-5-0-8-8-0-8-0-8-10-7-7-0-7-0-7-0-
[ Tab from: http://www.guitartabs.cc/tabs/s/sisters_of_mercy/lights_btab.html ]
riff #2c
G ----------------------------------------------------------
D ----------------------------------------------------------
A ----------------------------------------------------------
E -0-0-0-0-0-2-3-5-5-0-5-0-5-0-8-8-0-8-0-8-10-7-7-0-7-0-7-0-

riff #3a
G --------------------------------------------------------------------
D --------------------------------------------------------------------
A --------------------------------------------------------------------
E -4-4-0-4-0-4-0-5-5-0-5-0-5-0-10-10-0-10-0-10-0-12-12-12-12-12-12-12-

riff #3b
G --------------------------------------------------------------------
D --------------------------------------------------------------------
A --------------------------------------------------------------------
E -0-0-0-0-0-2-3-5-5-0-5-0-5-0-10-10-0-10-0-10-0-12-12-12-12-12-12-12-

riff #4
G ----------------------------------------------------------
D ----------------------------------------------------------
A ----------------------------------------------------------
E -12-12-12-12-12-12-5-5-5-5-5-5-8-8-8-8-8-8-10-7-7-7-7-7-7-

riff #5
G -----
D -----
A -----
E -5-0-


How to play:

riff	#1a x3
	#1b x2
	#1a x4
	#1b x2
	#1a x2
	#1c
		break...
	#2a
	#3a
	#2b
	#3a
	#2c
	#3a
	#4
	#3b
	#5



Comments