Sisters Of Mercy - Good Things Chords & Tabs

 

Good Things Chords & Tabs

Sisters Of Mercy Chords & Tabs

Version: 1 Type: Tab 0 ratings
1 star 2 stars 3 stars 4 stars 5 stars
comments

Good Things Tab

#----------------------------------PLEASE NOTE---------------------------------#
#This file is the author's own work and represents their interpretation of the #
#song. You may only use this file for private study, scholarship, or research. #
#------------------------------------------------------------------------------#
Subject: TAB:Sisters Of Mercy-Good Things
To: jamesb@animal-farm.nevada.edu
Date: Sat, 27 Mar 1993 14:20:18 +0100 (MET)
X-Mailer: ELM [version 2.4 PL21]
Mime-Version: 1.0
Content-Type: text/plain; charset=US-ASCII
Content-Transfer-Encoding: 8bit
Content-Length: 3080      

THE SISTERS OF MERCY - "The good things"

Comments, corrections, etc. welcome.
Par Svensson, t89par@tdb.uu.se


TAB:


Riff #1:
[ Tab from: http://www.guitartabs.cc/tabs/s/sisters_of_mercy/good_things_tab.html ]
e ---------------------------------------------------
B -7-7-10-9-7-------9-7---7-7-10-9-7---9-7--7--------
G ------------9-9-9-----9------------9--------9------
D ---------------------------------------------------


Riff #2:

e -7-7-10-9-7----------9-7----7-7-10-9-7----9-7--7-7-
B ------------10-10-10-----10------------10----------
G ---------------------------------------------------
D ---------------------------------------------------


Riff #3:

e -7-7-7-7-------------------------------------------
B -----------------10-10-10-10-7-7-7-7---------------
G ---------9-9-9-9-----------------------------------
D ---------------------------------------------------


Intro: #1 x 2

#1  The cracks appear along the wall...
#1  See the people stoop that, that once stood tall...
#2  See the buildings crumble, see  the empires fall
#1  But I see no more and, I don't recall
   

#3  'cause I see                       (Repeat 3 times)
#3  Nothing but the good things

#3  Nothing but the good, good, good, good, good, good,
#3  Nothing but the good things

etc.




CHORDS:


Intro : ((F#m x 13) E x 3) x 3
Comments