Sisters Of Mercy - First And Last Always Chords & Tabs

 

First And Last Always Chords & Tabs

Sisters Of Mercy Chords & Tabs

Version: 1 Type: Bass Tab 0 ratings
1 star 2 stars 3 stars 4 stars 5 stars
comments

First And Last Always Bass Tab

"First and Last and Always" by The Sisters of Mercy (from the album "First and Last and Always")
================================================================================================

transcribed by Frank Tower (towerf@Sol.ACS.Uwosh.Edu)


Riff 1:

G|-----------------------------------------------------------------------
D|-----------------------------------------------------------------------
A|-5---5-0-3-3-3-0-5-5-5-3---3-3-3-5---5-0-3-3-3-3-10-10-10-10--10-10-10-
E|-----------------------------------------------------------------------


Riff 2:

G|--------------------------------------------------------
D|--------------------------------------------------------
A|-----------------------------5-------5-5-5-3-5-5--5-5-5-
E|-5-------5-5-5-3-------3-3-3----------------------------


Riff 3:
[ Tab from: http://www.guitartabs.cc/tabs/s/sisters_of_mercy/first_and_last_always_btab.html ]
G|--------------------------------------------------------
D|--------------------------------------------------------
A|-----------------------------5-------5-5-5-5-5-5--5-5-5-
E|-5-------5-5-5-3-------3-3-3----------------------------


Riff 4:

G|-----------------------------------------------------------------
D|-----------------------------------------------------------------
A|-5-------3-------5-------3-------5-------3-----------------------
E|-------------------------------------------------3---------------


Riff 5:

G|------------------------------------------------------------------
D|------------------------------------------------------------------
A|-5-------3-------5-------3-------5-------3-------10---------------
E|------------------------------------------------------------------


                            How to play it
                            --------------

                                 Verse      Chorus
    Bass:               1 1  |  1 1 1 1  |  -2- -3-  |  4 5 4 5

            Chorus                 Verse      Chorus      Chorus
    Bass:   -2- -3-  |   1  1  |  1 1 1 1  |  -2- -3-  |  -2- -3-






Comments