Sisters Of Mercy - Dominion Chords & Tabs

 

Dominion Chords & Tabs

Sisters Of Mercy Chords & Tabs

Version: 1 Type: Tab 0 ratings
1 star 2 stars 3 stars 4 stars 5 stars
comments

Dominion Tab

   
The sisters of mercy "dominion / mother russia" from the album "floodland"

Submitted by Scott Clark "clarky_10101"

Email: clarky_10101@Hotmail.com

Intro:  (play over "some day, some day ...dominion Chorus)

 |Let ring------------------------------------>
  G         Dm/G                  C           G 
e|-----3-|-------1-|------1---1---0-|-0--0-|-----3-|
b|---3---|-----3---|----3----3------|------|----3--|
g|-0-----|--0------|--0-----0-------|------|---0---|
d|-------|---------|----------------|------|-------|
a|-------|---------|----------------|------|-------|
E|-------|---------|----------------|------|-------|

Rhythm: strum these if you like but if you use distortion use single strums.
bass line follows same chord structure.
intro rhythm:
   G    Bb  C
e|---|----|---|
b|---|----|---|
g|---|--3-|-5-| 
d|-5-|--3-|-5-|
a|-5-|--1-|-3-|
E|-3-|----|---|

Rhythm over chorus:
[ Tab from: http://www.guitartabs.cc/tabs/s/sisters_of_mercy/dominion_tab.html ]
rhythm figure 1
        Some day,    some day,    some day,      Dominion!
  F, G
e|-----|------------|------------|------------------------|
b|-----|------------|------------|------------------------|
g|-----|------------|------------|------------------------|
d|-3/5-|---------3/5|---------3/5|---------3/5--5---------|
a|-3/5-|---------3/5|---------3/5|---------3/5--5---------|
E|-1/3-|---------1/3|---------1/3|---------1/3--3---------|

come a time----------------------
          Let ring--------------->
          D           C
e|--------------------------------|   
b|--------------------------------|back to rhythm figure 1
g|--------------------------------|
d|---------7----------5-----------|
a|---------7----------5-----------|
E|---------5----------3-----------|

after second bar of rhythm figure 1 play this:
Gm pentatonic scale
Some say prayers------------------> well I say mine!
                              steady gliss------->
                                           F    G
e|----------------------------------|-------------|
b|----------------------------------|-------------|
g|----------------------------------|-------------|
d|----------------------------------|------3////5-|
a|--5---3-----3--5--5---3-----------|------3////5-|
E|---------5-----------------6----3-|------1////3-|


well that's it!,, (or as much of it as i can make out)
i suggest you listen to the cd for prescise timing and/or chord changes
good luck and have fun!!

Questions?, comments??,, corrections???,, email me at the above address
Comments