Sister Hazel - Your Winter Chords & Tabs

 

Your Winter Chords & Tabs

Sister Hazel Chords & Tabs

Version: 7 Type: Tab 0 ratings
1 star 2 stars 3 stars 4 stars 5 stars
comments

Your Winter Tab

   
Date: Wed 20-2-02 (21:05)
From: James Bevis (bevis_james@hotmail.com)
Subject: s/sister_hazel/your_winter.tab

Sister Hazel, Your Winter

Key: /or\ = Slide
      h   = hammer on
      p   = Pull off
      ^   = bend


In case you don't know the chords:

    G   D   Am  C

[--3---2---0------]
[--3---3---1---1--]
[--0---2---2---0--]
[--0---0---2---2--]
[--2-------0---3--]
[--3--------------]



intro/verse:
                                      s     h p
[--3---3--3--3-3--3-3--------------------------------]
[--3---3--3--3-3--3-3----7---7--7-7------------------]
[--0---0--0--0-0--0-0----7---7--7-7-----7------------]
[--0---------0-0---------7---7--7-7-----7-7^9^7--7---]
[--2---------2-2---------5---5--5-5-7/9--------9-----]
[--3---------3-3-------------------------------------]

                                      s     h p
[----------------------------------------------------]
[--8---8--8--8-8--8-8----5---5--5-5------------------]
[--9---9--9--9-9--9-9----5---5--5-5-----5------------]
[--9---9--9--9-9--9-9----5---5--5-5-----5-5^7^5--5---]
[--7---7--7--7-7--7-7----3---3--3-3-5/7--------7-----]
[--0---------0-0-------------------------------------]

Verse:

Pre-Chorus:

G            D
Why do you ch...

         Am
If you only ...

          C C
how much I l...


love you

[ Tab from: http://www.guitartabs.cc/tabs/s/sister_hazel/your_winter_tab_ver_7.html ]
Chorus:
G     D         Am       C
I won't be your w...

G     D       Am               C
I won't be anyo....

G   D          Am      C
we can be forgiven

G   D     Am
I will be here

e|---------------------------------|
B|---------------------------------|
G|--11^^^^^^11---------------------|
D|-------------9-11^\----9^^^^^^9--|
A|--------------------10-----------|
E|---------------------------------|


2nd verse:

Pre-chorus


Chorus

Solo:

e|----------------------------------------------|
B|----------------------------------------------|
G|-/14-14h15p14--12^^^^---------11^^^^^-10^^^^^-|
D|----------------------10^^^^^-----------------|
A|----------------------------------------------|
E|----------------------------------------------|

e|-------13-------------------------------------|
B|-11h15-----------18^18p17-13----/8------------|
G|------------/17-----------------/7/12p11------|
D|----------------------------------------------|
A|----------------------------------------------|
E|----------------------------------------------|

e|----------------------------------------------|
B|----------------------------------------------|
G|-77/88/99/1010/1111/1212/1313/1414/1515/1717--|
D|-77/88/99/1010/1111/1212/1313/1414/1515/1717--|
A|----------------------------------------------|
E|----------------------------------------------|

Any comments - you can e-mail me or leave some comments.
Comments