Sister Hazel - Your Winter Chords & Tabs

 

Your Winter Chords & Tabs

Sister Hazel Chords & Tabs

Version: 2 Type: Tab 0 ratings
1 star 2 stars 3 stars 4 stars 5 stars
comments

Your Winter Tab

   
Title- Your Winter
Artist- Sister Hazel

Submitted by: Flin Cannon

 
This is the tab for the chords          

       G     D    E     C 
E>-----3-----2----0-----0-|
B>-----0-----3----0-----1-| 
G>-----0-----2----0-----0-| 
D>-----0-----0----2-----2-| 
A>-----2-----0----2-----3-| 
E>-----3-----0----0-----0-| 
[ Tab from: http://www.guitartabs.cc/tabs/s/sister_hazel/your_winter_tab_ver_2.html ]
These are the strum patterns for the chords
(s-srtum)
(m-mute)
    G                 D                 E           C
sss m  sss        sss m sssss       sss m sss      ss

Play this part after the strumming part above.
(h-hammeron)
(p-pull-off)

E>-----------------------------------
B>-----------------------------------
G>-----------------------------------
D>--------2-—0h2p0-----2--------
A>--3--3------------3-----0-----
E>------------------------------------
Comments