Sister Hazel - Your Winter Chords & Tabs

 

Your Winter Chords & Tabs

Sister Hazel Chords & Tabs

Version: 1 Type: Bass Tab 0 ratings
1 star 2 stars 3 stars 4 stars 5 stars
comments

Your Winter Bass Tab

-------------------------------------------------------------------------------
Your Winter  Sister Hazel
-------------------------------------------------------------------------------
Tabbed By : Daniel Neucom  bass player of Finabah
e-mail: certified_bomb_69@hotmail.com

Tuning: Standard Tuning

 Verse  Slide in from E string 15th fret to start.
         Just slide between notes to add effect.
G|--------------------------------------------------|
D|--------------------------------------------------|
A|-------5----------3-------------------------------|
E|---3--------0-------------------------------------|
[ Tab from: http://www.guitartabs.cc/tabs/s/sister_hazel/your_winter_btab.html ]
 Bridge (why do you..)
G|--------------------------------------------------|
D|--------------------------------------------------|
A|--55555-----------333333---55---------------------|
E|----------000000----------------------------------|

 Chorus  In normal chorus finish on          [this is the build up into the 
         E at the end                                       solo bit]
G|---------------------------------------------------------------------------|
D|---------------------------------------------------------------------------|
A|-----5--3--5-----5---3-----5--3-------5-----------5555555------------------|
E|--3------------3---0-----3---------3------0000000--------------------------|

NOTE in the first sol bit play the verse chords. In the second sol bit play
the chorus notes with the build up before and after the solo (to allow for
solo notes to finish)

Thats basically it. I worked this out from the guitar tab so I'm 99% sure its
correct. Any changes or comments E-mail me at certified_bomb_69@hotmail.com
Comments