Sister Hazel - Thank You Chords & Tabs

 

Thank You Chords & Tabs

Sister Hazel Chords & Tabs

Version: 1 Type: Tab 0 ratings
1 star 2 stars 3 stars 4 stars 5 stars
comments

Thank You Tab

   
This is pretty much what I make it out to be... it's a pretty simple song

Intro/Verse:

 D
-2-------------------------------------------|
-3-------------------------------------------|
-2-------------------------------------------|
-0-------------------------------------------|
-0--0-2--------------------------------------|
-0-----0-2-----------------------------------|
    [HAMMER ON THE SECOND FRETS]

Bridge:
[ Tab from: http://www.guitartabs.cc/tabs/s/sister_hazel/thank_you_tab.html ]
 Em                G
-0-----------------3-------------------------|
-0-----------------3-------------------------|
-0-----------------0-------------------------|
-2-----------------0-------------------------|
-2-----------------2-------------------------|
-0-----------------3-------------------------|
But you won't fool me... I'm smarter than that...

Chorus:

D, A, D, A, G, A

Listen to the song to get the rhythm right =)
For more Sister Hazel tabs, mail me at i_am_your_idol@hotmail.com
Comments