Sister Hazel - Hopeless Chords & Tabs

 

Hopeless Chords & Tabs

Sister Hazel Chords & Tabs

Version: 1 Type: Tab 0 ratings
1 star 2 stars 3 stars 4 stars 5 stars
comments

Hopeless Tab

   
Song: Hopeless
Artist: Sister Hazel
Source: Mark and Scott Baker

The chords should be exact, in fact we had Drew from Sister Hazel review
them for us.  However, the lead guitar tabs are “our interpretation” 
because Ryan has some extensive effects overlaying the riffs and leads.
This made it fairly difficult to interpret with complete accuracy so we 
just tried to get it as close as we could.  In any event, it sounds good 
the way it’s tabbed but feel free to post any changes or to email me at 
sbaker2112@yahoo.com with any comments and/or changes.

The riffs and leads are at the bottom of the song, and are only labeled 
within the flow of the song below.  Once you get the effects set, the 
riffs and solos sound very cool.

I hope you enjoy the song as much as we enjoy playing it!  …Scott


CHORDS (all barred):
E5:     [0 7 9 9 x x]     C#m:  [4 4 6 6 5 4]
C#sus2: [4 4 6 6 x x]     E:    [7 7 9 9 9 7]
A:      [5 7 7 6 5 5]     F#:   [9 9 11 11 11 9]
B5:     [7 9 9 x x x]     B:    [7 9 9 8 7 7]



INTRO:
E5, C#sus2, A, B5,    E5, C#sus2, A, B5
(RIFF 1)

VERSE 1:
E5	
A grand empty canvas creating my life

A strange situation - there's no wrong or right
	  A                   E5
And I'm learning - along the way
E5
From the first time I met you, what could I do

But pray for the strength, to see this one through
	 A                E5
And I'm tryin' 	it slips away


CHORUS:
C#m           A                        E				
A hopeless romantic but nothing feels right
                 F#                      A
A ship full of lovers that sails out of sight
                C#m                   B
I wait for the answers to fall from the… sky…

E5
(RIFF 1, RIFF 2)


VERSE 2:
E5
I'm walkin' through trees where the path has been worn

Where hearts have been ripped out trampled and torn
         A                      E5
And I'm sorry - I'm sorry once again


CHORUS:
C#m           A                        E				
A hopeless romantic but nothing feels right
                 F#                      A
A ship full of lovers that sails out of sight
                C#m                    B
I wait for the answers to fall from the… sky…
                 C#m
to fall from the sky
C#m         A                        E		
A perfect beginning but why does it end
                  F#                  A
And when will I learn, to let someone in
                C#m                    B
I wait for the answers to fall from the… sky…,  yea…

D5  A  E5,	D5  A  E5,	D5  A  B,  
(SOLO 1)
[ Tab from: http://www.guitartabs.cc/tabs/s/sister_hazel/hopeless_tab.html ]
CHORUS:
C#m           A                        E		
A hopeless romantic but nothing feels right
                 F#                      A
A ship full of lovers that sails out of sight
                C#m                    B
I wait for the answers to fall from the… sky… – 
                 C#m
To fall from the sky
C#m         A                        E		
A perfect beginning but why does it end
                  F#                  A
And when will I learn, to let someone in
                C#m                    B
I wait for the answers to fall from the… sky…,  yea…
C#m           A               E               F#     A  C#m  B  
It's hopeless	 So hopeless	  So hopeless    Yea…,		 
        C#m  A  E  F#  A  C#m  B   
Yea…	(SOLO 2, RIFF 1) (note: SOLO2 starts 2 beats into the C#m)

OUTRO:  
E5, C#sus2, A, B5,     E5, C#sus2, A, B5, E5
(RIFF 1)



=======================
Lead Guitar Riffs/Tabs:

S=slide, b=bend, h=hammer

RIFF 1:

E----------------------------------------------------------------------------
B------------0------------0---------------0-------------0-----7----------7---
G-----8-9---8-9b----8-9--8-9b-----8-9-9--8-9b-------8-9---8-9---9-8--8-9-----
D-------------------------------------------------9--------------------------
A-------------------------------0--------------------------------------------
E---0-------------9----------------------------------------------------------

RIFF 2:

E-------------------------12-14h12h14h12-------------------------------------
B------------0--------------------------14h12h14h12--------------------------
G-----8-9---8-9b-----8-9---------------------------13h11h13h11—9h8h9---------
D----------------------------------------------------------------------------
A----------------------------------------------------------------------------
E---0--------------0---------------------------------------------------------

SOLO 1:

E---------------------------------------15s17s19s21s22b----------------------
B---10—-10--10s12-12s10-9-7--------------------------------------------------
G---------------------------9------------------------------------------------
D-----------------------------9-7s9------------------------------------------
A----------------------------------------------------------------------------
E----------------------------------------------------------------------------

E----------------------------------------------------------------------------
B----------------------------------------------------------------------------
G---9s11--9--9-------------------------6s8s11s16s18--------------------------
D----------11---11s9-7-9s11-9-7-7h9-11---------------------------------------
A----------------------------------------------------------------------------
E----------------------------------------------------------------------------

SOLO 2:

E--------12h14-12h14-12h14-12-14b-12----12-----------------------------------
B---12h14----------------------------14------14-12-14b-14s12s11s9s7-9-9-7----
G--------------------------------------------------------------------9---9-6-
D----------------------------------------------------------------------------
A----------------------------------------------------------------------------
E----------------------------------------------------------------------------

E----------------------------------------------------------------------------
B----------------------------------------------------------------------------
G---6h8s9s11-----------------------------------------------------------------
D----------------------------------------------------------------------------
A----------------------------------------------------------------------------
E----------------------------------------------------------------------------

Comments