Sister Hazel - Erin Chords & Tabs

 

Erin Chords & Tabs

Sister Hazel Chords & Tabs

Version: 1 Type: Tab 0 ratings
1 star 2 stars 3 stars 4 stars 5 stars
comments

Erin Tab

   
#----------------------------------PLEASE NOTE--------------------------------#
#This file is the author\'s own work and represents their interpretation of the#
#song. You may only use this file for private study, scholarship, or research.#
#-----------------------------------------------------------------------------#

ARTIST: Sister Hazel
SONG: \"Erin\"
ALBUM: Lift
TRANSCRIBED BY: Jan Roger Loftas, Bergen, Norway.
janroger11@hotmail.com

Play the song tuning: D A D F# A D

Listen to the song and you’ll find out how to play it


Fingerpick in the beginning of the song and also used in line 1 and 2 :

 
1>--------0------0-----0--------------|
2>---------0------0---0---------------|
3>------------------------------------|
4>----5h7----5-----4------------------|
5>------------------------------------|
6>--0---------------------------------|



 Chords used in line 1:
[ Tab from: http://www.guitartabs.cc/tabs/s/sister_hazel/erin_tab.html ]
                                                            
|--0-------0--0---5h7p4p0---0--0--0—7h9p4p0-0---X---0--0--0--0--0--------|
|--0-------0--0-------------0--0--0---------0---X---0--0--0--0--0--------|
|--5p3-----8--7-------------3--5--8---------3---X---3--5--3--2--5--------|
|--0-------0--0-------------0--0--0---------4---X---4--0--0--0--0--------|
|--5-------9--7-------------X--5--9---------0---7---X--5--4--2--5--------|
|--5-------9--7-------------4--5--9---------X---7---4--5--4--2--5--------|


Chords used in line 2:

|--0-------0--0--0--0--0--0---0-----------------------------------------|
|--0-------0--0--0--0--0--0---0-----------------------------------------|
|--12p10---7--8--7--5--3--2---5-----------------------------------------|
|--12------0--0--0--0--0--0---0-----------------------------------------|
|--12------7--9--7--5--4--2---5-----------------------------------------|
|--0-------7--9--7--5--4--2---5-----------------------------------------|



Comments