Sister Hazel - Champagne High Chords & Tabs

 

Champagne High Chords & Tabs

Sister Hazel Chords & Tabs

Version: 2 Type: Tab 0 ratings
1 star 2 stars 3 stars 4 stars 5 stars
comments

Champagne High Tab

   
Champagne High (Intro) 
Sister Hazel  
From "Fortress" 
Transcribed by Rob Watkins (rob8520@yahoo.com) 

I think this is pretty accurate, it sounds good at 
least. There is another guitar part but it just 
randomly plays a note every now and then, so you can 
figure that out by listening to the cd. I also wrote 
the rhythm on there, ^ means the upbeat. 

C         x32010 
G         320033 
Am        x02210 
F         133211 

  1...^..2...^...3...^..1...^..2...^..3...^..  
  |        C           ||      G2           | 
e ------------------------------------------ 
B 0---------------------3------------------- 
G -----------0--------------------0--------- 
D 0h2p0----------0-------------------------- 
A -------3----------------------------------   
E ----------------------3------3------3----- 
[ Tab from: http://www.guitartabs.cc/tabs/s/sister_hazel/champagne_high_tab_ver_2.html ]
  1...^..2...^..3...^..1...^....2..^..3...^.. 
  |        Am         ||      F             | 
e 0----------------------------------------- 
B 0------1------3------0h1------------------ 
G 2--------------------0h2------0----------- 
D 2-----------------------------------3----- 
A 0----------------------------------------- 
E ------------------------------------------ 

  1...^..2...^...3...^..1...^..2..^...3..^.. 
  |         C          ||      G2            
e ----------------------3------------------- 
B 0----------------------------------------- 
G -----------0--------------------0--------- 
D 0h2p0----------0-------------------------- 
A -------3---------------------------------- 
E ----------------------3------3------3----- 

  1...^...2...^...3...^..1...^..2...^..3..^. 
  |        Am           ||     F            | 
e ------------3----------1------0------------ 
B -------------------------------------3----- 
G ----0-------------------------0------2----- 
D ----------------0------1h2----------------- 
A 2-------3---------------------------------- 
E ------------------------------------------- 

*Repeat everything again once except the very last 'F' 
section, play this instead: 

  ritard................ 
  1...^..2...^..3...^..1  
  |         F         || C | 
e 0h1----0-------------0--- 
B --------------3------1--- 
G 0------0------0------0--- 
D ---------------------0h2- 
A ---------------------3--- 
E ------------------------- 


Comments