Sister Hazel - Champagne High Chords & Tabs

 

Champagne High Chords & Tabs

Sister Hazel Chords & Tabs

Version: 1 Type: Tab 0 ratings
1 star 2 stars 3 stars 4 stars 5 stars
comments

Champagne High Tab

Sister Hazel
Fortress
"Champagne High"

intro to champagne high

guitar one:  background (continues throughout intro)  

-0-h-1-----------3-----0-----------------------------------
-1-------1-------1-----5---6---8----4 /6 --5--3---1--------
-0-----------0---------7-----------------------------------
-----------------------0-----------------------------------
-----------------------------------------------------------
-----------------------------------------------------------



-1--h --3----0---------------------------------------------
-1-----------5---6--8--4/6--5--3--1------------------------
-------------7---------------------------------------------
-------------0---------------------------------------------
-----------------------------------------------------------
-----------------------------------------------------------

guitar 2:  lead (begins in the middle of the first bar)
[ Tab from: http://www.guitartabs.cc/tabs/s/sister_hazel/champagne_high_tab.html ]
------------------------------------------------------------
------------------------------------------------------------
------------------------------------------------------------
-8-/-10---9---7----5----12---9---10---12--------------------
------------------------------------------------------------
------------------------------------------------------------

lead continued
------------------------------------------------------------
------------------------------------------------------------
------------------------------------------------------------
-8-/-10---9----7------14---15---14---12---9-----------------
------------------------------------------------------------
------------------------------------------------------------

lead continued
------------------------------------------------------------
------------------------------------------------------------
------------------------------------------------------------
--7---12---10---7---15---14---12---10-----------------------
------------------------------------------------------------
------------------------------------------------------------

listen to where the lead guitar comes into the song...its louder 
and cleaner.  there are some fills that the lead guitarist puts in
that are hard to hear with both guitars playing, but i think i got
close to the important parts.
Comments