Sister Hazel - All For You Chords & Tabs

 

All For You Chords & Tabs

Sister Hazel Chords & Tabs

Version: 2 Type: Tab 3 ratings
1 star 2 stars 3 stars 4 stars 5 stars
comments

All For You Tab

   
       Hey guys I went to one of sister hazels concerts and they played this and I was hooled . 
       Its a fun song to play its one of those feel good songs . SO hope you enjoy it.

    Intro  
E:------3-3--3--3-------3---
B:-----3---3--3--3-----3----
G:----0-----0--0--0---0-----
D:---0---------------0------
A:--2---------------2-------
E:-3---------------3--------

Verse
      Do up strokes on these Chords amd strum all for D's together ( like real fast )
   Am   Am   D    D    D   D
E:-0----0----2----2----2---2---
B:-1----1----3----3----3---3---
G:-2----2----2----2----2---2---   4x
D:-2----2----0----0----0---0---
A:-0----0----------------------
E:-----------------------------
  
Pre Chorus

         theres been Times       down by the road      I just cant turn and walk away
E:------0----------0---------------0----------0------------0-------0-------------2-----
B:-----0----------1---------------0----------1------------0-------1--------------3-----
G:----0----------2---------------0----------2------------0-------2---------------2-----
D:---2----------2---------------2----------2------------2-------2----------------0-----
A:--2----------0---------------2----------0------------2-------0-----------------------
E:-0----------x---------------0----------x------------0-------x------------------------

Chorus Its and easy chorus just play these Chords
 G C Am D  x4
 G C Am G Strum those chords fast

 Listen to the song to here the order but here is the solo

E:------------------------------------------------------------------------------------------------
B:------------------------------------------------------------------------------------------------
G:---------------------------------------------------------11s12---11----11---9-----9s7---7--7-7s0
D:------9h10s12--12-12-12-----12-12--12--12---14---14-----------------14--------12------9---------
A:9s10--------------------------------------------------------------------------------------------
E:-------------------------------------------------------------------------------------------------

[ Tab from: http://www.guitartabs.cc/tabs/s/sister_hazel/all_for_you_tab_ver_2.html ]
E:------------------------------------------------------------------------------------------------
B:------------------------------------------------------------------------------------------------
G:------------------------------------------11--12--14---14b-----------------14bbbb14-------------
D:--------9------10--10-----------12----14--------------------------------------------------------
A:-9s10-----10s12--------12s14--------------------------------------------------------------------
E:------------------------------------------------------------------------------------------------


E:------------------------------------------------------------------------------------------------
B:-----------------------------------------------12--13---15--15b---15b---15b----15b----15b---15b-
G:-(14--(14)--14--12s11-12-12s----------12--14----------------------------------------------------
D:-------------------------------s14--------------------------------------------------------------
A:------------------------------------------------------------------------------------------------
E:------------------------------------------------------------------------------------------------

E:------------------------------------------------------------------------------------------------
B:-(15)---15---(15)--15s13s12---13----13-12-----12-13-15-13---13s12-----12------------------------
G:------------------------------------------14-----------------------14-----14b---------12s11-12--
D:----------------------------------------------------------------------------------------------14
A:------------------------------------------------------------------------------------------------
E:------------------------------------------------------------------------------------------------

E--------------------------------------------------------------(15)--15s12-15----12---------------
B:-----------------------------------------------------------------------------15--------15----15b
G:---------------------------------------12-12----12----14bbs12-----------------------------------
D:14-12-10--------------------------12-14------14-------------------------------------------------
A:-------14-12-10----10---12s14-------------------------------------------------------------------
E:----------------14------------------------------------------------------------------------------

 Hope yall enjoy    
 


 

Comments