Sister Hazel - All For You Chords & Tabs

 

All For You Chords & Tabs

Sister Hazel Chords & Tabs

Version: 1 Type: Bass Tab 0 ratings
1 star 2 stars 3 stars 4 stars 5 stars
comments

All For You Bass Tab

-------------------------------------------------------------------------------
All For You  Sister Hazel
-------------------------------------------------------------------------------

Tabbed By : Daniel Neucom  bass player of Finabah
e-mail: certified_bomb_69@hotmail.com

Tuning: Standard Tuning

  Verse  come in about half way through.
G|---------------------------------------------------------------|
D|---------------------------------------------------------------|
A|------------X2-------------5-----------------------------------|
E|---0---5------------0---5--------------------------------------|
[ Tab from: http://www.guitartabs.cc/tabs/s/sister_hazel/all_for_you_btab.html ]
 Chorus                    At the end of chorus           
G|---------------------------------------------------------------|
D|---------------------------------------------------------------|
A|----3-----5------------------3---------------------------------|
E|--3-----5-----------------3-----3------------------------------|

Bridge (rain keeps pouring down bit)
G|---------------------------------------------------------------|
D|---------------------------------------------------------------|
A|--------------------5------------------------------------------|
E|-0---5---X3-----0----------------------------------------------|

This is basically how you play the song. Good song by a great band.
Any comments or queries E-mail me at certified_bomb_69@hotmail.com
Comments