Sistema Cerrojo - Nube Oscura Chords & Tabs

 

Nube Oscura Chords & Tabs

Sistema Cerrojo Chords & Tabs

Version: 1 Type: Tab 0 ratings
1 star 2 stars 3 stars 4 stars 5 stars
comments

Nube Oscura Tab

   
#----------------------------------PLEASE NOTE---------------------------------#
#This file is the author's own work and represents their interpretation of the #
#song. You may only use this file for private study, scholarship, or research. #
#------------------------------------------------------------------------------##
From: Ccaceres@hotmail.com
Date: Sun, 12 may 2002
Subject: Nube Oscura Unplugged

This is a SISTEMA CERROJO song.From Their albun "Side Project"....
A very good band of Honduras they really know what is Rock on!!!!

Intro (Renne and Mario Starts playing This Together)

Capo on 3rd Fret(Renne Electroacoustic Guitar)
      G      A/G#    Dadd9    F#m7    (4 times)

(Mario Enters on the second time with his electric guitar)
  W/Light Distorsion Hand Mutted

  (Riff 1)
      G                     A/G# 
E|-----------------------------------------------|
B|-----------(6)-------------------(6)-----------|
G|--------(7)---(7)-------------(5)---(5)--------|
D|---8-8-----------------------------------------|
A|---8-8-------------------3-3-------------------|
E|---6-6-------------------5-5-------------------|

      Dadd9                 F#m7    
E|-------------------------------------(6)-------|
B|-----------(6)-------------------(6)-----------|
G|--------(3)---(3)-------------(3)----(3)-------|
D|---5-5-------------------5-5-------------------|
A|---6-6-------------------5-5-------------------|
E|---x-x-------------------x-x-------------------|

Mario Plays this Riff x2 times
And the 3rd time he play it like this

(Riff 2)
    G                     A/G# 
E|--------------(7)-------------------(5)--------|
B|-----------(6)-------------------(6)-----------|
G|--------(7)---(7)-------------(5)---(5)--------|
D|---8-8-----------------------------------------|
A|---8-8-------------------3-3-------------------|
E|---6-6-------------------5-5-------------------|

      Dadd9                 F#m7    
E|--------------(3)-------------66-6-------------|
B|-----------(6)----------------66-6-------------|
G|--------(3)---(3)-------------33-3-------------|
D|---5-5-------------------5-5--55-5-------------|
A|---6-6-------------------5-5--55-5-------------|
E|---x-x-------------------x-x-------------------|
[ Tab from: http://www.guitartabs.cc/tabs/s/sistema_cerrojo/nube_oscura_tab.html ]
1 Verse
(Renne plays this Chords and Mario plays the 1st riff over it Hand-muted with a 
little Delay)

 G         A/G#           Dadd9     F#m7    
El sol se esta ocultando y el frio se apodera de mi
 G         A/G#           Dadd9     F#m7    
Siento que las nubes hacen este cielo cada vez mas Gris...

(Mario Now is playing the 2riff with light distorision)

G         A/G#           Dadd9     F#m7    
                                   Cada Vez Mas Gris!!!
G         A/G#           Dadd9     F#m7  



2 verse
(Renne and Mario Play the same Chords but Mario Plays the
 Hand Muted)  

G         A/G#           Dadd9     F#m7    
El aire se detiene en mi boca y Todo sigue Igual
G         A/G#           Dadd9     F#m7    
y te vas pero no volveras a verme nunca, nunca mas igual-

(2 Riff W/Distorsion)
G         A/G#           Dadd9     F#m7    
                                   Nunca Mas!!!!!!!!!
G         A/G#           Dadd9     F#m7....



Chorus
Renne plays what is Below and Mario the same W/heavy Dist)

G         A/G#           Dadd9     F#m7    
Y me perdere!!!!!!  
G         A/G#           Dadd9     F#m7    
Tras estas Nubes oscuras por ti!!!!!!!!
G         A/G#           Dadd9     F#m7    
Y Respirare bajo la noche tu aroma
G         A/G#           Dadd9     F#m7 
Para perderme otravez!!!!   



Interlude
Renne plays the same Chords x4 and Mario
mess up with the first riff with a Flanger
until Renne plays 4 times the chords



3 Verse
(The Same as the first verse)

G         A/G#           Dadd9     F#m7    
Miro las nubes como forman figuras espectrales
G         A/G#           Dadd9     F#m7    
la miro como si esta fuera la ultima vez!!!!!

G         A/G#           Dadd9     F#m7    
G         A/G#           Dadd9     F#m7 

The Music Fades with some Battery  Riffs..

That it!!! I Hope U LIke it-..
:pCorrections/Comments welcome :p
Comments