Sip Yeknom - Yottish Tale Chords & Tabs

 

Yottish Tale Chords & Tabs

Sip Yeknom Chords & Tabs

Version: 2 Type: Tab 0 ratings
1 star 2 stars 3 stars 4 stars 5 stars
comments

Yottish Tale Tab

-------------------------------------------------------------------------------
			     "A YOTTISH TALE" - Sip Yeknom
-------------------------------------------------------------------------------

By:Sly Guy   email:rylang@yahoo.com        If you don't have this new single
                                           then get it, it's sick!
  Slow Part of Intro
e|---0-----------------------------------------------------------------------|
B|---1----1----3----3/5----3----5----5/6----5----6----6/8----6----5----------|
G|---2-----------------------------------------------------------------------|
D|---2-----------------------------------------------------------------------|
A|---0-----------------------------------------------------------------------|
E|---------------------------------------------------------------------------|

e|---0---------------------------------------0-------------------------------|
B|---3----1----3----3/5----3----1----0h1-----1----1----3----3/5----3----5----|
G|---1---------------------------------------2-------------------------------|
D|---2---------------------------------------2-------------------------------|
A|---2---------------------------------------0-------------------------------|
E|---0-----------------------------------------------------------------------|

e|--------------------------------------1----1----3----3/5----3----5----5/6--|
B|---5/6----5----6----6/8----6----5-----3------------------------------------|
G|--------------------------------------2------------------------------------|
D|--------------------------------------0------------------------------------|
A|---------------------------------------------------------------------------|
E|---------------------------------------------------------------------------|

e|---5----6----6/8----6----5-----0--------------------------------------0----|
B|-------------------------------1----1----3----3/5----3----1----0------0----|
G|-------------------------------2--------------------------------------1----|
D|-------------------------------2--------------------------------------2----|
A|-------------------------------0--------------------------------------2----|
E|----------------------------------------------------------------------0----|

   Fast Part of Intro  (the chords are played behind the solo)
e|-------------------0-------------------------------------------------------|
B|3/5--3--1--0h1-----1--1--3--3/5--3--5--5/6--5--6---6/8---6---5---6---3-----|
G|-------------------2-------------------------------------------------------|
D|-------------------2-------------------------------------------------------|
A|----------------0----------------------------------------------------------|
E|---------------------------------------------------------------------------|

e|-------0------------------------------------0------------------------------|
B|-------3---5---6---5---6---5---6---5~-------1---1---3---3/5---3---5---5/6--|
G|-------1------------------------------------2------------------------------|
D|-------2------------------------------------2------------------------------|
A|-------2--------------------------------0----------------------------------|
E|---0-----------------------------------------------------------------------|

e|---------------------------------0------------------------------------0----|
B|---5---6---6/8--6--5--6--3-------3---5---6---5---6---5---6---5~-------1----|
G|---------------------------------1------------------------------------2----|
D|---------------------------------2------------------------------------2----|
A|---------------------------------2--------------------------------0--------|
E|-----------------------------0---------------------------------------------|

e|-----------------------------1---------------------0-----------------------|
B|---1---3---3/5---3---5-------3---5/6---5---6-------1---12---10---8---10---8|
G|-----------------------------2---------------------2-----------------------|
D|-------------------------0-------------------------2-----------------------|
A|-----------------------------------------------0---------------------------|
E|---------------------------------------------------------------------------|

===============================================================================

e|------------0------12(harmonic)--------------------------------------------|
B|---6---5~---0--------------------------------------------------------------|
G|------------1--------------------------------------------------------------|
D|------------2--------------------------------------------------------------|
A|------------2--------------------------------------------------------------|
E|------------0--------------------------------------------------------------|

  Verse                      Who stole the keeshka!
e|---------------------------0------0------0-----0-------0------0-----0-----0|
B|---3/5---3---1---0h1-------1------1------1-----1-------3------3-----3-----3|
G|---------------------------2------2------2-----2-------1------1-----1-----1|
D|---------------------------2------2------2-----2-------2------2-----2-----2|
A|------------------------0------0------0------0---------2------2-----2-----2|
E|----------------------------------------------------0------0------0-----0--|

e|------0---------0---------0-----0-------1-----1-----0-----0----0-----------|
B|------1---------3---------1-----1-------3-----3-----1-----1----0-----------|
G|------2-x4------1-x4------2-----2-------2-----2-----2-----2----2----------9|
D|------2---------2---------2-----2----0-----0--------2-----2----2-----------|
A|---0------------2------0-----0-------------------0-----0-------1----7------|
E|-------------0-------------------------------------------------0-----------|

e|---0-----------------------------------------------------------------------|
B|---1-----------------------------------------------------------------------|
G|---2---repeat the entire verse 4x--the guitar solo plays durring the 3rd --|
D|---2-------------------------------time, and it is exactly the same as the-|
A|---0-------------------------------guitar solo durring the fast part of the|
E|-----------------------------------intro-----------------------------------|

e|-----------------0------0-----0--------------------------------------------|
B|--then play--3/5---5--3---3-1---1--0---------------------------------------|
G|---------------------------------------------------------------------------|
D|---------------------------------------------------------------------------|
A|---------------------------------------------------------------------------|
E|---------------------------------------------------------------------------|
[ Tab from: http://www.guitartabs.cc/tabs/s/sip_yeknom/yottish_tale_tab_ver_2.html ]
  Bass Solo
e|---------------------------------------------------------------------------|
B|---------------------------------------------------------------------------|
G|---------------------------------------------------------------------------|
D|-----2/14-------2/14-14h15p14h15p14----14--play 4x, after each time play---|
A|---0------15--0---------------------15-------------------------------------|
E|---------------------------------------------------------------------------|

e|---0---8------------------------0------8-------------------------0---------|
B|---1-------<-first two times----2-------<-last two times---------1---------|
G|---2------9---------------------2---9----------------------------2---------|
D|---2----------------------------1--------------------------------2---------|
A|---0----------------------------0--------------------------------0---------|
E|---------------------------------------------------------------------------|

  Then again on bass
e|---------------------------------------------------------------------------|
B|---------------------------------------------------------------------------|
G|---------------------------------------------------------------------------|
D|--------14---------------------------------------after 1x guitar comes in--|
A|---12--------15---14---12---12h14--12h14-----------------------------------|
E|---------------------------------------------------------------------------|

e|---0--0--0--0--------------------0-----0----8------------------------------|
B|---1--1--1--1--------------------1-----1---10------------------------------|
G|---2--2--2--2---play 3x then-----2-----2----9---------------------play 8x--|
D|---2--2--2--2--------------------2-----2---10------------------------------|
A|---0--0--0--0-----------------0-----0-----------0--1--2--1--0--------------|
E|---------------------------------------------------------------------------|

e|-----------------------0-----0---------------------------------------------|
B|-----------------------1-----1--|-----distortion---|-----------------------|
G|--on 8th time play-----2-----2----------|---pm---|-------------------------|
D|-----------------------2-----2---7---3---22222222--------------------------|
A|--------------------0-----0------7---3---22222222--------------------------|
E|---------------------------------5---1---00000000--------------------------|

  Ska-ish Part                                                  Distortion
e|---00000000--00000000--00000000--00000000--0000--1111--0000----------------|
B|---11111111--33333333--11111111--33333333--1111--3333--1111----------------|
G|---22222222--11111111--22222222--11111111--2222--2222--2222----------------|
D|---22222222--22222222--22222222--22222222--2222--0000--2222---2------------|
A|---00000000--22222222--00000000--22222222--0000--------0000---2------------|
E|-------------00000000------------00000000---------------------0------------|

  Dist.
e|---------------------------------------------------------------------------|
B|---3/5--3--1--0------------------------------------------------------------|
G|---------------------------------------------------------------------------|
D|-----------------7777-----7777--5555--3333--2--5----7777--5555--3333--2--5-|
A|-----------------7777-----7777--5555--3333--2--5----7777--5555--3333--2--5-|
E|-----------------5555-----5555--3333--1111--0--3----5555--3333--1111--0--3-|

                              Why do you always speak to me leavin these...
e|---------------------------------------------------------------------------|
B|---------------------------------------------------------------------------|
G|---------------------------|----chord progression--|-----------------------|
D|--7777--5555--3333--2--5----7777--5555--3333--2--5-------------------------|
A|--7777--5555--3333--2--5----7777--5555--3333--2--5--play chord progression-|
E|--5555--3333--1111--0--3----5555--3333--1111--0--3--three more times then--|

e|---------------------------------------------------------------------------|
B|---------------------------------------------------------------------------|
G|------------------------------9999-----------------------------------------|
D|---7777--3333--2-------then---9999-strum 4x-----and then-------------------|
A|---7777--3333--2--------------7777-----------------------------------------|
E|---5555--1111--0-----------------------------------------------------------|

e|---------------------------------------------------------------------------|
B|---------------------------------------------------------------------------|
G|--9999-10101010-9999-10101010-9999-10101010-9999-10101010-9999-10101010----|
D|--9999-10101010-9999-10101010-9999-10101010-9999-10101010-9999-10101010----|
A|--7777--8-8-8-8 7777--8-8-8-8-7777--8-8-8-8-7777--8-8-8-8-7777--8-8-8-8----|
E|---------------------------------------------------------------------------|

e|---------------------------------------------------------------------------|
B|---------------------------------------------------------------------------|
G|---9999-10101010-9999-10101010-9999-10101010--10-9-10-9-10-9-10-9-10-9-10-9|
D|---9999-10101010-9999-10101010-9999-10101010--10-9-10-9-10-9-10-9-10-9-10-9|
A|---7777--8-8-8-8-7777--8-8-8-8-7777--8-8-8-8---8-7--8-7--8-7--8-7--8-7--8-7|
E|---------------------------------------------------------------------------|

e|---------------------------------------------------------------------------|
B|---------------------------------------------------------------------------|
G|--10-9--7--5---------------------------------------------------------------|
D|--10-9--7--5--7777--3333--2------------------------------------------------|
A|---8-7--5--3--7777--3333--2------------------------------------------------|
E|--------------5555--1111--0------------------------------------------------|

  Now clean again
e|----------------------0--------0--------0--------0-------0-------1---------|
B|---3/5--3--1--0h1-----1--------3--------1--------3-------1-------3---------|
G|----------------------2-x4-----1-x4-----2-x4-----1-x4----2-x2----2-x2------|
D|----------------------2--------2--------2--------2-------2-----0-----------|
A|-------------------0-----------2-----0-----------2-----0-------------------|
E|----------------------------0-----------------0----------------------------|

e|------0------0----------------------------------------------------0000000-0|
B|------1------0-------------------------------3/5----3----1--0-0h1-1111111-1|
G|------2-x2---1-------9-bend and realease--------------------------2222222-2|
D|------2------2----------------------------------------------------2222222-2|
A|---0---------2---7------------------------------------------------0000000-0|
E|-------------0-------------------------------------------------------------|


The End
Comments