Siouxsie And The Banshees - Staircase Mystery Chords & Tabs

 

Staircase Mystery Chords & Tabs

Siouxsie And The Banshees Chords & Tabs

Version: 1 Type: Bass Tab

Staircase Mystery Bass Tab

   
THE STAIRCASE (MYSTERY)
Siouxsie And The Banshees

Taken from the Polydor album The Scream (2005 Reissue)

Transcribed by: Damian Pamminger (TwitcheD_85@hotmail.com)

Standard tuning: E A D G

Fig. 1 (1x)
|-----------------------|
|-----------------------|
|-0----7----8---7--5----|
|-----------------------|

Fig. 2 (2x)
|------------------------------------|----------|-------------------|
|----7--7-----7--7--3--3--3--5--5--5-|--REPEAT--|-------------------|
|-0--------0-------------------------|-two-more-|-5-------5-----5-\-|
|------------------------------------|--times---|-------------------|

Fig. 3a (4x)
|-----------------------------------|
|---------4--4--4-----------2--2--2-|
|-3--3--3----------0--0--0----------|
|-----------------------------------|
[ Tab from: http://www.guitartabs.cc/tabs/s/siouxsie_and_the_banshees/staircase_mystery_btab.html ]
Fig. 2 (2x)
Fig. 3a (4x)
Fig. 2 (1x) (No slide at the very end)
Fig. 1 (3x)

Fill (1x)
|-----------------|
|-3-------3-------|
|-----------------|
|-----------------|

Fig. 2 (1x)

Fig. 3b (1x)
|------------------------------------|----------|------------------|
|----------4--4--4-----------2--2--2-|--REPEAT--|-5--5--5--4--4--4-|
|-3--3--3-----------0--0--0----------|-two-more-|------------------|
|------------------------------------|--times---|------------------|

|------------------|
|----------2--2--2-|
|-0--0--0----------|
|------------------|

Fig. 2 (2x)
Fig. 3a (3x)

End
|----------------------------9-----------------------|
|----------4--4--4-----------7-----------------------|
|-3--3--3-----------0--0--0--0-----------------------|
|----------------------------------------------------|

Pause until end