Siouxsie And The Banshees - Pure Chords & Tabs

 

Pure Chords & Tabs

Siouxsie And The Banshees Chords & Tabs

Version: 1 Type: Bass Tab

Pure Bass Tab

   
PURE
Siouxsie And The Banshees

Taken from the Polydor album The Scream (1978/2005 Reissue)

Transcribed by: Damian Pamminger (TwitcheD_85@hotmail.com)

Standard tuning: E A D G

|---------------------------------------------------------|----------------|
|---------------------------------------------------------|----------------|
|-15---\---9-----0------------16---\---10-----------------|-17---\---11----|
|---------------------------------------------6-----------|----------------|
[ Tab from: http://www.guitartabs.cc/tabs/s/siouxsie_and_the_banshees/pure_btab.html ]
|---------|--------|------------------------|------------|---------------|
|---------|-REPEAT-|-13---\---6-------------|---REPEAT---|-14---\---8----|
|---------|--------|----------------3-------|-three-more-|---------------|
|-7-------|--------|------------------------|---times----|---------------|

|---------|--------|------------------------|--------|----------------|
|---------|-REPEAT-|-15---\---9-------------|-REPEAT-|-16---\---10----|
|-4-------|--------|----------------5-------|--------|----------------|
|---------|--------|------------------------|--------|----------------|

|-------14---14---\---0-----15---\---9-----0-----15---15---\---0----|
|-------------------------------------------------------------------|
|-9-----------------------------------------------------------------|
|-------------------------------------------------------------------|

|-15---\---9-----0-------|-------------| *Let that last open G note
|------------------------|---REPEAT----|  ring until the end*
|------------------------|-eleven-more-|
|------------------------|----times----|