Siouxsie And The Banshees - Overground Chords & Tabs

 

Overground Chords & Tabs

Siouxsie And The Banshees Chords & Tabs

Version: 1 Type: Bass Tab

Overground Bass Tab

   
OVERGROUND
Siouxsie And The Banshees

Taken from the Polydor album The Scream (1978/2005 Reissue)

Transcribed by: Damian Pamminger (TwitcheD_85@hotmail.com)

Standard tuning: E A D G

Pause

Fig. 1a (10x)
|-----------------------|
|------7----------------|
|-7---------8--8--10--8-|
|-----------------------|
[ Tab from: http://www.guitartabs.cc/tabs/s/siouxsie_and_the_banshees/overground_btab.html ]
Fig. 1b (10x)
|--------------------------------|
|--------------------------------|
|-7--7--7--0--0--0--8--8--10--10-|
|--------------------------------|

Fig. 1c (1x)
|-9--9--9--9--9--9--9--9--9--9--9--9--9--9--9--9-|--------|
|-9--9--9--9--9--9--9--9--9--9--9--9--9--9--9--9-|-REPEAT-|
|-7--7--7--7--7--7--7--7--7--7--7--7--7--7--7--7-|--------|
|------------------------------------------------|--------|

Fig. 1a (9x)
Fig. 1b (9x)
Fig. 1c (1x)
Fig. 1a (10x)
Fig. 1b (6x)
Fig. 1c (1x)

End
|-9-|
|-9-|
|-7-|
|---|

Pause for the end fade