Siouxsie And The Banshees - Mirage Chords & Tabs

 

Mirage Chords & Tabs

Siouxsie And The Banshees Chords & Tabs

Version: 1 Type: Bass Tab

Mirage Bass Tab

   
MIRAGE
Siouxsie And The Banshees

Taken from the Polydor album The Scream (1978/2005 Reissue)

Transcribed by: Damian Pamminger (TwitcheD_85@hotmail.com)

Standard tuning: E A D G

Fig. 1a (1x)
|-------|-----------------------------------------------------|
|-Pause-|-----------------------------------------------------|
|-------|-2-2---2-2---2-2--2-2-2-22-3-3-3-3-3-3-3-3-3/-5--5-5-|
|-------|-----------------------------------------------------|

|-----------------------------------|
|-----------------------------------|
|-5-5-5-5-2-2---2-2---2-2--2-2-2-22-|
|-----------------------------------|

Fig. 1b (4x)
|-------------------------------------------------------------|
|-------------------------------------------------------------|
|-3-3-3-3-3-3-3-3/-5-5-5-5-5-5-5-5-2-2---2-2---2-2---2-2-2-22-|
|-------------------------------------------------------------|
[ Tab from: http://www.guitartabs.cc/tabs/s/siouxsie_and_the_banshees/mirage_btab.html ]
Fig. 2 (2x)
|---------------------------------------------------------------|
|-2-2-2-2-2-2-2-2-----------------2-2-2-2-------------2-2-2-2-2-|
|-----------------3-3-3-3-3-3-3-3---------3-3-3-5--2------------|
|---------------------------------------------------------------|

Fig. 3 (1x)
|-----------------------------------------------------------------|
|-----------------------------------------------------------------|
|-3-3-3-3-3-3-3-3-3-3-3-3-3-3-3-3-2-2-2-2-2-2-2-2-2-2-2-2-2-2-2-2-|
|-----------------------------------------------------------------|

Fig. 4 (1x)
|----------------------------------|----------|----------------------|
|----------------------------------|--REPEAT--|----------------------|
|-0-0-0-0-0-0-0/-5-5-5-5-5-5-5-5-5-|-two more-|-0-0-0-0-0-0-0/-8-8-8-|
|----------------------------------|--times---|----------------------|

|-----------------------------|
|-----------------------------|
|-8-8-8-8-8-8-8-8-8-8-8-8-8-8-|
|-----------------------------|

Fig. 1b (4x)
Fig. 2 (2x)
Fig. 3 (1x)
Fig. 4 (1x)
Fig. 2 (2x)
Fig. 3 (4x)

End:
|------------|
|------------|
|-3----------|
|------------|