Single Frame - 3 Bloodless Shadows Chords & Tabs

 

3 Bloodless Shadows Chords & Tabs

Single Frame Chords & Tabs

Version: 1 Type: Tab 0 ratings
1 star 2 stars 3 stars 4 stars 5 stars
comments

3 Bloodless Shadows Tab

Single Frame is a rather new garage band and is on the Vans "Off The Wall" Vol. VII CD
-----------------------------------------------------------------------------
			     3 BLOODLESS SHADOWS - Single frame
-----------------------------------------------------------------------------

Really easy and cool sounding. just my style!

Tabbed by: jonny boi
Email: yourparentswillhateme@msn.com

Tuning: drop d play it really really fast

intro and verses
d|---------------------------------------|
A|---------------------------------------| x8
F|---------------------------------------|
C|---------------------------------------|
G|---------------------------------------|
D|----o-o-o----3-3----5-5-5-0----3-3-----|
[ Tab from: http://www.guitartabs.cc/tabs/s/single_frame/3_bloodless_shadows_tab.html ]
chorus (REALLY FAST triplets)                       |on 2nd time, end w/ this
d|--------------------------------------------------|---------------------|
A|--------------------------------------------------|---------------------|
F|--------------------------------------------------|x2-------------------|
C|--------------------------------------------------|---------------------|  
G|--------------------------------------------------|---------------------|  
D|---10-9-7--10-9-7--10-9-7--10-9-7--10-9-7--10-9-7-|--9-9-9-9-9-9-9-9----|

//verse//

//chorus//

bridge 
d|---------------------------------------|
A|---------------------------------------|
F|---------------------------------------| x4
C|---2---2---5---------------------------|
G|---2---2---5---------------------------|
D|---0---0---3---------------------------|

d|---------------------------------------|
A|---------------------------------------|
F|---------------------------------------| x2
C|---2-2-2---5-5---2-2-2---7-7-----------|
G|---2-2-2---5-5---2-2-2---7-7-----------|
D|---0-0-0---3-3---0-0-0---5-5-----------|

//chorus//

outtro
d|---------------------------------------|
A|---------------------------------------|
F|---------------------------------------|
C|--2-2---2-5--7-7---7-5-----------------|
G|---------------------------------------|
D|--0-0---0-3--5-5---5-3-----------------|

d|---------------------------------------|
A|---------------------------------------|
F|---------------------------------------|
C|--2------------------------------------|
F|--2------------------------------------|
D|--0------------------------------------|




=============================================================================
Comments