Sinergy - Venomous Vixens Chords & Tabs

 

Venomous Vixens Chords & Tabs

Sinergy Chords & Tabs

Version: 1 Type: Tab 0 ratings
1 star 2 stars 3 stars 4 stars 5 stars
comments

Venomous Vixens Tab

   
                        SINERGY - VENOMOUS VIXENS
                        From "Beware the Heavens"             
  

Transcribed by: Justin Simms

For Questions, Comments, Corrections, Requests
please contact at reaper@slayerized.com

Check out The Reaper's Metal Tablature Archive at
      http://internettrash.com/users/thereaper/

.  - palm mute                          /  - slide up to
\  - slide down to                      ~  - vibrato
"  - tremelo picking                    () - ghost note
p  - pull off                           h  - hammer-on 
tr - trill notes                        fb - full bend (1step)
< > - harmonic

Sinergy - Venomous Vixens

{Transcribers Note:  This is, for the most part, finished.}  
{It's lacking the solo and a few parts at the end but I   }
{felt it was ready enough to be put up. I will be updating} 
{it eventually, I just haven't had the time lately        }

Tuned to C#

Riff A.1
|----------------------------------------|
|----------------------------------------|
|-9----9----9---10---9---9---7-----------|Gtr I
|-7-77---77---7----7---7---7-------------|
|----------------------------------------|
|----------------------------------------|
|   ..   ..   .    .   .   .             |
|----------------------------------------|
|----------------------------------------|
|----------------------------------------|Gtr II
|----------------------------------------|
|-7----------------------5---5-----------|
|-5----------------------3---3-----------|


|----------------------------------------|
|----------------------------------------|
|-9----9----9----7----9------------------|Gtr I
|-7-77---77------7----9------------------|
|-------------55-5-77-7------------------|
|----------------------------------------|
|   ..   ..   ..   ..                    |
|----------------------------------------|
|----------------------------------------|
|----------------------------------------|Gtr II
|----------------------------------------|
|-7--------------------------------------|
|-5--------------------------------------|


|----------------------------------------|
|----------------------------------------|
|-9----9----9---7------------------------|Gtr I
|-7-77---77---7---7-10-7-9-7-10----------|
|----------------------------------------|
|----------------------------------------|
|   ..   ..   .   .    .   .             |
|----------------------------------------|
|----------------------------------------|
|----------------------------------------|Gtr II
|----------------------------------------|
|-7-------------2------------------------|
|-5-------------0------------------------|


|----------------------------------------|
|----------------------------------------|
|----------------------------------------|Gtr I
|---7----------7------7---7h9~-12~-------|
|-7---77-10-77---7-10---7----------------|
|----------------------------------------|
| .   ..    ..   .      .                |
|----------------------------------------|
|------15fb--20fb------------------------|
|----------------------------------------|Gtr II
|----------------------------------------|
|-3--------------------------------------|
|-1--------------------------------------|

Riff A.1 - 1x


Riff A.2
|----------------------------------------|
|----------------------------------------|
|-9----9----9---10---9---9---7-----------|Gtr I
|-7-77---77---7----7---7---7-------------|
|----------------------------------------|
|----------------------------------------|
|   ..   ..   .    .   .   .             |
|                                        |
|----------------------------------------|
|----------------------------------------|
|----------------------------------------|Gtr II
|----------------------------------------|
|-000000000000-------5-5-----------------|
|--------------------3-3-----------------|
  ............


|----------------------------------------|
|----------------------------------------|
|-9----9----9----7----9------------------|Gtr I
|-7-77---77------7----9------------------|
|-------------55-5-77-7------------------|
|----------------------------------------|
|   ..   ..   ..   ..                    |
|----------------------------------------|
|----------------------------------------|
|----------------7----9------------------|Gtr II
|----------------7----9------------------|
|-00000000----55-5-77-7------------------|
|----------------------------------------|
  ........    ..   ..


|----------------------------------------|
|----------------------------------------|
|-9----9----9---7------------------------|Gtr I
|-7-77---77---7---7-10-7-9-7-10----------|
|----------------------------------------|
|----------------------------------------|
|   ..   ..   .   .    .   .             |
|----------------------------------------|
|----------------------------------------|
|----------------------------------------|Gtr II
|----------------------------------------|
|-00000000-------------------------------|
|---------------00000000-----------------|
  ........      ........

|----------------------------------------|
|----------------------------------------|
|----------------------------------------|Gtr I
|---7----------7------7---7h9~-12~-------|
|-7---77-10-77---7-10---7----------------|
|----------------------------------------|
| .   ..    ..   .      .                |
|----------------------------------------|
|----------------------------------------|
|----------------------------------------|Gtr II
|-------------------5--------------------|
|-------------------3------5-------------|
|-11111111-----------------3-------------|
  ........

Riff A.2 - 2x, but instead of the last half of the 4th measure play:

Fill 1
|--------------------|
|--------------------|
|--------------------|
|-10-9-7-------------|
|--------10-9-7------|
|---------------10-9-|


Riff B
|----------------------------------------|
|----------------------------------------|
|----------------------------------------|Gtr I
|-------------7-------8----7-9-----------|
|-7h8-8-8--10---9--10---10---------------|
|----------------------------------------|
|     .                                  |                  
|----------------------------------------|
|----------------------------------------|
|----------------------------------------|Gtr II
|----------------------------------------|
|-2-----3---34------4-5------7-----------|
|-0----01--012-----02-3----0-5-----------|

Riff B - 1x

Riff C
|----------------------------------------|
|----------------------------------------|
|---------------------9---9--------------|Gtr I
|-----9---10p9---7----------10-----------|
|-7-7---7------7---77---7----------------|
|----------------------------------------|
    .   .      .   ..   .

Riff C - 1x


Riff D
|----------------------------------------|
|----------------------------------------|
|-------------------------9-7---7-9------|Gtr I
|----------------------------------------|
|-7----5----7----5----3------------------|
|-5-55-3-33-5-55-3-33-1-0-----0----------|
|   ..   ..   ..   ..   .     .          |
|----------------------------------------|
|----------------------------------------|
|----------------------------------------|Gtr II
|----------------------------------------|
|-7----5----7----5----3------------------|
|-5-55-3-55-5-55-3-33-1-11111111111------|
    ..   ..   ..   ..   ...........

Riff D - 1x

Fill 2
|-------|
|-------|
|-------|
|-------|
|-3-5-3-|
|-1-3-1-|


Riff E.1
|---------------------------------------------|
|---------------------------------------------|
|-------------10-7-9--------------------5-7ah-|Gtr I
|-------------10-7-9----------------7-6-------|
|-2-----------8--5-7--------8-7-5-8-----------|
|-0-000-000-0--------000-00-------------------|
|   ... ... .        ... ..                   |      
|---------------------------------------------|
|---------------------------------------------|
|-------------10-7-9--------------------5-7---|Gtr II
|-------------10-7-9----------------7-6-------|
|-2-----------8--5-7--------8-7-5-8-----------|
|-0-000-000-0--------000-00-------------------|
    ... ... .        ... ..


|-----------------------------------------|
|-----------------------------------------|
|-------------10-7-9----------------------|Gtrs I
|-------------10-7-9----------------------|  & II
|-2-----------8--5-7-7777-7777-777-777-77-|
|-0-000-000-0-----------------------------|
    ... ... .        .... .... ... ... .. 

Riff E.1 - 1x


Riff F
|----------------------------------------|
|----------------------------------------|
|----------------------------------------|Gtrs I
|----------14\---------------------------|  & II
|-7-7-5-7------3--------5----------------|
|-5-5-3-5------1-111-11-3-333-33---------|
           ^^    ... ..   ... ..
           This changes
[ Tab from: http://www.guitartabs.cc/tabs/s/sinergy/venomous_vixens_tab.html ]
Here's the changes
|-------|-----|
|-------|-----|
|-------|-----|
|-pick--|-----|
|-slide-|-----|
|-in----|-12\-|

Riff F - 3x 

Riff G
|----------------------------------------|
|----------------------------------------|
|-4h5p4-5h7p5-7h8p7-9~-7--9--7--9--------|Gtr I
|----------------------------------------|
|----------------------------------------|
|----------------------------------------|
|                                        |
|----------------------------------------|
|----------------------------------------|
|----------------------------------------|Gtr II
|----------------------2--5-----2--------|
|-2-----3-----5-----7--0--3--5--0--------|
|-0-----1-----3-----5--------3-----------|


Riff H
|----------------------------------------------------|
|----------------------------------------------------|
|-9"-----------12"----------7"----------10"----9"----|Gtr I
|----------------------------------------------------|
|----------------------------------------------------|
|----------------------------------------------------|
|                                                    |
|----------------------------------------------------|
|----------------------------------------------------|
|-----------------9"-7"------------------------------|Gtr II
|-7"-10"-9"-7"-7"-------10"----9"-7"-5"----10"----9"-|
|---------------------------5"----------7"-----7"----|
|----------------------------------------------------|


|----------------------------------------------------|
|----------------------------------------------------|
|-9"-----------12"----------7"-------------7"--------|Gtr I
|---------------------------------------9"-----9"-7"-|
|----------------------------------------------------|
|----------------------------------------------------|
|                                                    |
|----------------------------------------------------|
|----------------------------------------------------|
|-----------------9"-7"------------------------------|Gtr II
|-7"-10"-9"-7"-7"-------10"----9"-7"-5"----10"----9"-|
|---------------------------5"----------7"-----7"----|
|----------------------------------------------------|

Riff H - 2x then 2x palm


Riff I
|----------------------------------------|
|----------------------------------------|
|----------------------------------------|Gtrs I
|-----7---7-----3-----5------------------|  & II
|-555-5---5-111-1-333-3------------------|
|----------------------------------------|
  ...       ...   ...

Riff I - 3x

Riff I.1
|----------------------------------------|
|----------------------------------------|
|----------------------------------------|Gtr I
|-----7---7------7-5---------------------|
|-555-5---5-1111-5-3---------------------|
|----------------------------------------|
| ...       ....                         |
|----------------------------------------|
|----------------20fbr-------------------|
|----------------------------------------|Gtr II
|-----7---7------------------------------|
|-555-5---5-1111-------------------------|
|----------------------------------------|
  ...       ....

Riff I.1 - 1x

Riff I.2
|------------------------------------------|
|---10-------------------10-----12fbr-10---|
|-7-----12-10----9-----7-----12----------12|Gtr I
|-------------12---10----------------------|
|------------------------------------------|
|------------------------------------------|
|                                          |
|------------------------------------------|
|------------------------------------------|
|------------------------------------------|Gtr II
|------------------------------------------|
|-55555555-1111--3333--55555555-111000333--|
|------------------------------------------|
  ........ ....  ....  ........ .........

|----------------------------------------|
|---9ah-10-------------------------------|
|-7--------10----9-----------------------|Gtr I
|-------------12---10--2-2-2-2-2---------|
|----------------------0-0-0-0-0---------|
|----------------------------------------|
|                                        |
|----------------------------------------|
|----------------------------------------|
|----------------------------------------|Gtr II
|----------------------2-2-2-2-2---------|
|-55555555-1111--3333--0-0-0-0-0---------|
|----------------------------------------|
  ........ ....  ....

Riff I.2 - 1x

Played under solo 2x
|----------------------------------------|
|----------------------------------------|
|----------7----10-----------------------|
|-2---2----7----10--2-----5--------------|
|-0-5-0-55-5-88-8---0-2-3-3-5------------|
|---3-----------------0-1---3------------|

Solo
|----------------------------------------|
|----------------------------------------|
|----------------------------------------|
|----------------------------------------|
|----------------------------------------|
|----------------------------------------|


Riff A.3
|----------------------------------------|
|----------------------------------------|
|-11----11----11---12---11---11---7------|Gtr I
|-9--99----99----9----9----9----9--------|
|----------------------------------------|
|----------------------------------------|
|    ..    ..    .    .    .    .        |
|----------------------------------------|
|----------------------------------------|
|----------------------------------------|Gtr II
|----------------------2----2------------|
|-22222222222222-------0----0------------|
|----------------------------------------|
  ..............


|----------------------------------------|
|----------------------------------------|
|-11----11----11----9-------12-----------|Gtr I
|-9--99----99-------9-------12-----------|
|----------------77-7-10-10-10-----------|
|----------------------------------------|
|    ..    ..    ..    . .               |
|----------------------------------------|
|----------------------------------------|
|-------------------9-------12-----------|Gtr II
|-------------------9-------12-----------|
|-22222222-------77-7-10-10-10-----------|
|----------------------------------------|
  ........       ..    . .


|----------------------------------------|
|----------------------------------------|
|-11----11----11---9---------------------|Gtr I
|-9--99----99----9---9-12-9-11-9-12------|
|----------------------------------------|
|----------------------------------------|
|    ..    ..    .   .    .    .         |
|----------------------------------------|
|----------------------------------------|
|----------------------------------------|Gtr II
|----------------------------------------|
|-22222222-------------------------------|
|------------------222222222-------------|
  ........         .........

|----------------------------------------|
|----------------------------------------|
|-------------------5-------5------------|Gtr I
|---7---------5-7-8---5-7-8--------------|
|-9---12-11-9----------------------------|
|----------------------------------------|
| .           . . . . . . . .            |
|----------------------------------------|
|----------------------------------------|
|----------------------------------------|Gtr II
|-------------7--------------------------|
|-------------5-------7------------------|
|-33333333------------5------------------|
  ........

Riff A.3 - 1x


Riff E.2
|----------------------------------------|
|----------------------------------------|
|-------------5-7-9ah~-------------------|Gtr I
|-------------5-7-9----------------------|
|-2-----------3-5-7----------------------|
|-0-000-000-0----------000-00------------|
|   ... ... .          ... ..            |
|----------------------------------------|
|----------------------------------------|
|-------------5-7-9----------------------|Gtr II
|-------------5-7-9----------------------|
|-2-----------3-5-7----------------------|
|-0-000-000-0----------000-00------------|
    ... ... .          ... ..

|----------------------------------------|
|----------------------------------------|
|------------12-7-9----------------------|Gtr I
|------------12-7-9----------------------|
|-7~---------10-5-7----------------------|
|-----0-00-0--------000-00---------------|
|     . .. .        ... ..               |
|----------------------------------------|
|----------------------------------------|
|------------12-7-9----------------------|Gtr II
|------------12-7-9---------5------------|
|-2----------10-5-7---------3let-ring----|
|-0-000-00-0--------000-00---------------|
    ... .. .        ... ..

Fill
|------------|
|------------|
|------------|Gtr I
|------------|
|-10-9b-7----|
|---------10-|

Riff B - 1x
Riff C - 1x
Riff D - 1x

Fill
|----------------------------------------|
|----------------------------------------|
|----------10-7-9--------------5-7-------|
|----------10-7-9----------7-6-----------|
|-3-5-3-2--8--5-7--8-7-5-8---------------|
|-1-3-1-0--------------------------------|

then the last bar of Riff E - 1x
Riff F - 3x
Riff G - 1x only for guitar II, while guitar I plays
Comments