Sinergy - Midnight Madness Chords & Tabs

 

Midnight Madness Chords & Tabs

Sinergy Chords & Tabs

Version: 1 Type: Tab 0 ratings
1 star 2 stars 3 stars 4 stars 5 stars
comments

Midnight Madness Tab

                    MIDNIGHT MADNESS - SINERGY

Tabbed: Esa Mikkola (Finland)

esamikkola@hotmail.com


...... palm-mute

/ and \ slides

~ vibrato

Intro riff


|------------8----------------------10----------10----------------------|
|-8-12-10-12---12-10-12----12-10-12----12-10-12----12-10-12-13-12-10-12-|
|-----------------------11----------------------------------------------|
|-----------------------------------------------------------------------|
|-----------------------------------------------------------------------|
|-----------------------------------------------------------------------|
|
|
|-----------------------------------------------------------------------|
|-----------------------------------------------------------------------|
|-9---------------------7-----------------------5-----------------------|
|-9---------------------7-----------------------5-----------------------|
|-7---------------------5-----------------------3-----------------------|
|-----------------------------------------------------------------------|

 1st and 3rd ending   2nd ending

|------------------|--12-10-8---------14~--|
|-13-12-10-12------|----------12-10-8------|
|-------------11~--|-----------------------|
|------------------|-----------------------|
|------------------|-----------------------|
|------------------|-----------------------|
|
|
|------------------|-----------------------|
|------------------|-----------------------|
|-7----------------|-----------------------|
|-7-----------9----|------------------9----|
|-5-----------9----|--5--5--5-5--5-5--9----|
|-------------7----|------------------7----|
                      .  .  . .  . .
4th ending

|------------8----------------------10-----------12-10-8-----------------------|
|-8-12-10-12---12-10-12----12-10-12----12-10-12----------12-10-8---------------|
|-----------------------11---------------------------------------10-9-7--------|
|-----------------------------------------------------------------------10-9-7-|
|------------------------------------------------------------------------------|
|------------------------------------------------------------------------------|
|
|
|------------------------------------------------------------------------------|
|------------------------------------------------------------------------------|
|-9---------------------7------------------------5-----------------------------|
|-9---------------------7------------------------5-----------------------------|
|-7---------------------5------------------------3-----------------------------|
|------------------------------------------------------------------------------|



|----------------------|
|----------------------|
|----------------------|
|--------------9--7--5-|
|-10--9--7--5--7--5--3-|
|----------------------|
|
|
|----------------------|
|----------------------|
|----------------------|
|--------------9--7--5-|
|-12--10-9--7--7--5--3-|
|----------------------|


Verse (2nd time play those last 3's in triplets, listen the cd)

|------------------------------------------------------|
|------------------------------------------------------|
|-5-----------------------5~-5~------------------------|
|-5-----------------------5~-5~----------------------7-|
|-3-3-3-3-3-3-3-3-3-3-3-3--------3-3-3-3-3-3-3-3-3-3-5-|
|------------------------------------------------------|
    . . . . . . . . . . .        . . . . . . . . . .     
                                                                   1st  2nd
|-----------------------------------------------------------------|----|----|
|-----------------------------------------------------------------|----|----|
|-----------------------------------------------------------------|----|----|
|-------9-8--------------5-7-----12-9-----9-8--------------5-7----|-12-|-2--|
|-7-7-7-----7-7-10-9-7-7-3-5-7-7-10-7-7-7-----7-7-10-9-7-7-3-5-7-7|-10-|-2--|
|-----------------------------------------------------------------|----|----|
|   . .     . .      . .     . .      . .     . .      . .     . . back to verse
|
| 2nd time guitar 2 plays this:                                    1st  2nd
|-----------------------------------------------------------------|----|----|
|-----------------------------------------------------------------|----|----|
|-------9-8-------------------------------9-8---------------------|----|----|
|---------------9--8-----5-7-----12-9-------------9--8-----5-7----|-12-|-2--|
|-7-7-7-----7-7------7-7-3-5-7-7-10-7-7-7-----7-7------7-7-3-5-7-7|-10-|-2--|
|-----------------------------------------------------------------|----|----|
    . .     . .      . .     . .      . .     . .      . .     . .

                                                     1st ending
|---------------------------------------------------|-----------------|
|---------------------------------------------------|-----------------|
|---------------------------------------------------|-----------------|
|-3-2-0-2---------------------------3-2-0-2---------|-----------------|
|-3-2-0-2---------------------------3-2-0-2---------|-7-7-7-7-5-5-5-5-|
|---------0-0-0-0-000-0-0-0-0-0-0-------------0-0-0-|-----------------|
|         . . . . ... . . . . . .             . . .   . . . . . . . .
|
|---------------------------------------------------|-----------------|
|---------------------------------------------------|-----------------|
|---------------------------------------------------|-----------------|
|-3-2-0-2---------------------------3-2-0-2---------|-5-5-5-5-4-4-4-4-|
|-3-2-0-2---------------------------3-2-0-2---------|-----------------|
|---------0-0-0-0-000-0-0-0-0-0-0-------------0-0-0-|-----------------|
          . . . . ... . . . . . .             . . .  . . . . . . . .


 2nd ending
|-------------------|
|-------------------|
|-------------------|
|---5-4-5-7-7-4-7---|
|-7-----------------|
|-------------------|
|
|
|-------------------|
|-------------------|
|-------------------|
|-------------------|
|-------------------|
|-------------------|


Then intro riff (only 2 first bars)

Then verse and it ends with this

|--------|
|--------|
|--------|
|-4-4-44-|
|-2-2-22-|
|--------|


 Chorus  (These are the chords but there is some palm-mutes and
          other things going on but I didn't tab them)

|---------------------------------------------------------|
|---------------------------------------------------------|
|--5--------------5------------5--------------------------|
|--5------2-------5------2-----5------------------------5-|
|--3------2-------3------2-----3-333-333-333-333-333-33-5-|
|---------0--------------0------------------------------3-|
                                 ... ... ... ... ... ..



|---------------------------------------------------------------|
|---------------------------------------------------------------|
|---------------------------------------------------------------|
|-3-2-0-2-----------2-0-----------3-2-0-2-----------2-0---------|
|-3-2-0-2---------2-----1-0-------3-2-0-2---------2---------4-5-|
|---------000-0-0-----------3-1-----------000-0-0-------2-3-----|


 Then
[ Tab from: http://www.guitartabs.cc/tabs/s/sinergy/midnight_madness_tab.html ]
|-----------------------------------------------------------------|
|-----------------------------------------------------------------|
|-----------------------------------------------------------------|
|-3-2-0-2------------2-0-----------3-2-0-2------------2-0---------|
|-3-2-0-2----------------1-0-------3-2-0-2--------------------4-5-|
|---------0-0-0-000----------3-1-----------0-0-0-000------2-3-----|
|         . . . ...                        . . . ...
|         
|-----------------------------------------------------------------|
|-----------------------------------------------------------------|
|--------------------4-2------------------------------4-2---------|
|-3-2-0-2----------------3-2-------3-2-0-2--------------------6-7-|
|-3-2-0-2--------------------5-3---3-2-0-2----------------4-5-----|
|---------0-0-0-000------------------------0-0-0-000--------------|
          . . . ...                        . . . ...


 Solo (not right but it's almost impossible to get it right..)

|--------------------------------------------------------------------------|
|--------------------------------------------------------------------------|
|-----------------------------------------------------------------14-16-17-|
|-----------------------------------------------14-16----16-17-14----------|
|--------------------12-14----12-14-15-15----14-------17-------------------|
|-14-15-12-14-15-12--------15-------------17-------------------------------|


|----------14-------15-17----15-17-19-17-19-20-22-20-19-22b-|
|-13-15-17----17-15-------19--------------------------------|
|-----------------------------------------------------------|
|-----------------------------------------------------------|
|-----------------------------------------------------------|
|-----------------------------------------------------------|


|-22p19p0-20p17p0-19p15p0-20p17p0-19p15p0-17p14p0-19p15p0-17p14p0-|
|-----------------------------------------------------------------|
|-----------------------------------------------------------------|
|-----------------------------------------------------------------|
|-----------------------------------------------------------------|
|-----------------------------------------------------------------|


|-15p12p0-17p14p0-15p12p0-14p10p0-15p12p0-14p10p0-12p8p0-14p10p0-12p8p0-|
|-----------------------------------------------------------------------|
|-----------------------------------------------------------------------|
|-----------------------------------------------------------------------|
|-----------------------------------------------------------------------|
|-----------------------------------------------------------------------|


|-10p7p0-12p8p0-10p7p0-8p5p0-10p7p0-8p5p0-7p3p0--------------------|
|------------------------------------------------8-7-5-------------|
|------------------------------------------------------7-5-4-------|
|------------------------------------------------------------7-5-4-|
|------------------------------------------------------------------|
|------------------------------------------------------------------|



|------------------------------------------------------------|
|------------------------------------------------------------|
|-5-4----------------------------------------9ah----9-12-11~-|
|-----7-5-4--------------------------------------10----------|
|-----------7-5-3---------7---7-10-9~--10-7------------------|
|-----------------7-5-3-----8--------------------------------|
                            .          .


|-------------------------------------------------------------|
|-------------------------------------------------------------|
|-12p9----9-12p9----9-11p9----9-11p9----9-14p9----9-14p9----9-|
|------10--------10--------10--------10--------10--------10---|
|-------------------------------------------------------------|
|-------------------------------------------------------------|


    4x        4x        4x        4x        8x
|----------------------------------------------------------------------|
|--------------------------------------------------20/24\down with bar-|
|-16t9h12---17t9h12---18t9h12---19t9h12---21t9h12----------------------|
|----------------------------------------------------------------------|
|----------------------------------------------------------------------|
|----------------------------------------------------------------------|



|-----5-----------5------------5-----------5-7-8-5-7-8-10-7-8-10-12-8-10-12-|
|--------8p5---------8p5----------8p5-8b~-----------------------------------|
|--7b----------7b----------7b-----------------------------------------------|
|---------------------------------------------------------------------------|
|---------------------------------------------------------------------------|
|---------------------------------------------------------------------------|



|-14-10-12-14-15-12-14-15-17-14-15-17-20-19-17----------------------------|
|----------------------------------------------20-19-17-------------------|
|-------------------------------------------------------19-17-16----------|
|----------------------------------------------------------------19-17-16-|
|-------------------------------------------------------------------------|
|-------------------------------------------------------------------------|



|--------------------------------------------------------------------------|
|--------------------------------------------------------------------------|
|-----14-17-16-14-17-16-14----------------14-14-12-9-14-12-9-------------9-|
|-17b----------------------17-16-14-16-17--------------------12-9-7-9-12---|
|--------------------------------------------------------------------------|
|--------------------------------------------------------------------------|



|---------------------------------------------------17-20-19-19~-|
|-----------------------------------------17-20-19-----------17~-|
|-----------14-17-16------------16-19-17-------------------------|
|-12-15-14------------16-19-17-----------------------------------|
|----------------------------------------------------------------|
|----------------------------------------------------------------|



|--15bt22r15--15b-12-12-12-12-15-15-15-15-15-15-----------8-10-8---------|
|------------------------------------------------8-10-12----------12-10--|
|------------------------------------------------------------------------|
|------------------------------------------------------------------------|
|------------------------------------------------------------------------|
|------------------------------------------------------------------------|



|-----------------------------------------------------|
|-8---------------------------------------------------|
|---10-9-7----9-7---------7-9-7--------7--------------|
|----------10-----10-9-10-------10-9-7---10-9-7-------|
|-----------------------------------------------10ah~-|
|-----------------------------------------------------|



|-----12-17p15p12------12-17p15p12-------12-17p15p12-15b--|
|-15b--------------15b---------------15b------------------|
|---------------------------------------------------------|
|---------------------------------------------------------|
|---------------------------------------------------------|
|---------------------------------------------------------|


                                                      tremolo picking
|----------------17-20p17----------------------17-20--22-20-19-17-17bend w/bar-|
|-------------18----------18----------------18--------------------20b----------|
|----------17----------------17----------17------------------------------------|
|-------19----------------------19----19---------------------------------------|
|-15h20----------------------------20------------------------------------------|
|------------------------------------------------------------------------------|


 The rest is all same riffs. Last riff is same as in the beginning but
 with palm-mute and little faster.
Comments