Sinergia - Amor Alternativo Chords & Tabs

 

Amor Alternativo Chords & Tabs

Sinergia Chords & Tabs

Version: 1 Type: Bass Tab 0 ratings
1 star 2 stars 3 stars 4 stars 5 stars
comments

Amor Alternativo Bass Tab

tabbed by NigaeH
INTRO

(soft drum)

VERSE
|--------------------------------------------|
|--------------------------------------------|
|-4--0*4--4--0*4---3--o*3--3-0*3-------------| X4
|--------------------------------------------|

[ Tab from: http://www.guitartabs.cc/tabs/s/sinergia/amor_alternativo_btab.html ]
PRE-CHORUS
|-6666---------------------------------------|
|-6666---------------------------------------|
|-4444----3--0*3-----------------------------|
|--------------------------------------------|
CHorus
|---6-----6------6--------5------5-------5---|
|---6-----6------6--------5------5-------5---|
|-4--0*4 ----0*4----/6/3----0*3-----0*3------|
|--------------------------------------------|


this song is very quite and easy.... you  hace to listen it and play it !

suggestions, etc here is my email bunglester@gmail.com
Comments