Sinch - The Arctic Ocean Chords & Tabs

 

The Arctic Ocean Chords & Tabs

Sinch Chords & Tabs

Version: 1 Type: Tab 0 ratings
1 star 2 stars 3 stars 4 stars 5 stars
comments

The Arctic Ocean Tab

   
Sinch - The Arctic Ocean

This is a standar tuning song..

Intro/Verse: Main Riff
									    (3x)
e|-----------------------------------------------------------------------------|
B|-----------------------------------------------------------------------------|
G|---------4-----4-----------4-----4-----------4-----4-----------7-----7------*|
D|------2-----2-----2-----2-----2-----2-----2-----2-----2-----4-----4-----4---*|
A|---------------------2-----------------3-----------------5-------------------|
E|---0-------------------------------------------------------------------------|

  end of verse:
e|-------------------------------------------------------------|
B|-----------0--0--------0--0--------0--0----0-0-0-0-0-0-0-0---|
G|-----------4--4--------4--4--------4--4----0-0-0-0-0-0-0-0---|
D|-------2------------2-----------2----------4-4-4-4-4-4-4-4---|
A|-----------------2-----------3-------------5-5-5-5-5-5-5-5---|
E|---0---------------------------------------------------------|

Pre-Chorus: (The higher notes are optional, they sound nice)
     C5	       B5	 A5		    (3x)
e|---0--0-0-0--0--0-0-0--0--0-0-0--0--0-0-0----|
B|---0--0-0-0--0--0-0-0--0--0-0-0--0--0-0-0----|
G|---5--5-5-5--4--4-4-4--2--2-2-2--2--2-2-2---*|
D|---5--5-5-5--4--4-4-4--2--2-2-2--2--2-2-2---*|
A|---3--3-3-3--2--2-2-2--0--0-0-0--0--0-0-0----|
E|---------------------------------------------|

end of Pre-Chorus:
e|---0--0-0-0--0--0-0-0--|
B|---0--0-0-0--0--0-0-0--|
G|---5--5-5-5--4--4-4-4-*|
D|---5--5-5-5--4--4-4-4-*|
A|---3--3-3-3--2--2-2-2--|
E|-----------------------| 
-From here, go directly into the Em

Chorus: Acoustic Guitar 
    Em			       D?       G
e|--0--0--0--0--0--0--0--0-----5---5-----3---3---|
B|--0--0--0--0--0--0--0--0-----5---5-----3---3---|
G|--0--0--0--0--0--0--0--0-----0---0-----0---0---|
D|--2--2--2--2--2--2--2--2-----4---4-----0---0---|
A|--2--2--2--2--2--2--2--2-----5---5-----2---2---|
E|--0--0--0--0--0--0--0--0---------------3---3---|
            "And it's          just like you to...
[ Tab from: http://www.guitartabs.cc/tabs/s/sinch/the_arctic_ocean_tab.html ]
    Em			       D?       G
e|--0--0--0--0--0--0--0--0-----5---5----3---3---|
B|--0--0--0--0--0--0--0--0-----5---5----3---3---|
G|--0--0--0--0--0--0--0--0-----0---0----0---0---|
D|--2--2--2--2--2--2--2--2-----4---4----0---0---|
A|--2--2--2--2--2--2--2--2-----5---5----2---2---|
E|--0--0--0--0--0--0--0--0--------------3---3---|
      say          I'd be  better off  without you...    

    Em			       D?       G
e|--0--0--0--0--0--0--0--0-----5---5----3---3---|
B|--0--0--0--0--0--0--0--0-----5---5----3---3---|
G|--0--0--0--0--0--0--0--0-----0---0----0---0---|
D|--2--2--2--2--2--2--2--2-----4---4----0---0---|
A|--2--2--2--2--2--2--2--2-----5---5----2---2---|
E|--0--0--0--0--0--0--0--0--------------3---3---|
       anyway     and I'm     stumbling through my...

e|--0--0--0--0--0--0--0--0---0--0--0--0--0--0---0--0--0---|
B|--0--0--0--0--0--0--0--0---1--1--1--1--1--1---1--1--1---|
G|--0--0--0--0--0--0--0--0---0--0--0--0--0--0---0--0--0---|
D|--2--2--2--2--2--2--2--2---2--2--2--2--2--2---2--2--2---|
A|--2--2--2--2--2--2--2--2---3--3--3--3--3--3---3--3--3---|
E|--0--0--0--0--0--0--0--0--------------------------------|
      words       and it's   all your fault so feel guilty"

Chorus: Electric Guitar
					      (3x)
e|--0---0--0--0--0h2--2--2h3--3/7--7--5---5---0---|
B|------------------------------------------------|
G|-----------------------------------------------*|
D|-----------------------------------------------*|
A|------------------------------------------------|
E|------------------------------------------------|

					       				 (1x)
e|--0---0--0--0--0h2--2--2h3---------0--------0--------0---5--5--5--3--3-----|
B|--------------------------------3--------3--------3---------------------3--|
G|-----------------------------4--------4--------4---------------------------|
D|---------------------------------------------------------------------------|
A|---------------------------------------------------------------------------|
E|---------------------------------------------------------------------------|
            				 -end of chorus for Electric guitar.
  Note: this riff is really hard to hear.

After this, play the verses, pre-chorus, and chorus again. Play the end
of the chorus twice, for both acoustic and electric guitars.
Have fun...

Any comments, questions and anything to hlynurhot@hotmail.com
Comments