Sinch - Something More Chords & Tabs

 

Something More Chords & Tabs

Sinch Chords & Tabs

Version: 4 Type: Tab 0 ratings
1 star 2 stars 3 stars 4 stars 5 stars
comments

Something More Tab

   
If u think this tab is wrong I must have the wrong song because it sounds
perfect against the CD(im sure any mistakes are minor). 
Its long because Ive tried to include all the changes in the guitar parts
Whichever song I have, its damn good and you play it like this:

Drop D Tuning

INTRO

Part 1
E------------------------------
B------------------------------
G-----5-------5-------2-----3--
D---3---3---3---3---2-----0----
A-5-------5-------0-----1-----1
D------------------------------

Part 2
E-------------------------------
B-------------------------------
G-----5--------5-------2-----3--
D---3---3----3---3---2-----0----
A-5--------5-------0-----1-----3
D-------------------------------

Part 3
E--------------------------------------------------
B--------------------------------------------------
G-----5-------5-------2-----3--------5--------5----
D---3---3---3---3---2-----0--------3---3----3---3--
A-5-------5-------0-----1-----1--5--------5-------5
D--------------------------------------------------

The intro uses each part once
For the first verse (when the drums kick in) the same riff is used, each part is
used once, but the end of part 3 is repeated again before the chorus breaks in.
i.e:

E----------------------------------------------------------
B----------------------------------------------------------
G-----5-------5-------2-----3--------5--------5-------5----
D---3---3---3---3---2-----0--------3---3----3---3---3---3--
A-5-------5-------0-----1-----1--5--------5-------5-------5
D----------------------------------------------------------

CHORUS
I use bars for the chorus chords, it sounds good and its easiest. Youll have to
work out the strumming pattern, Ive just put roughly how many times you need to
play each chord

[ Tab from: http://www.guitartabs.cc/tabs/s/sinch/something_more_tab_ver_4.html ]
E------------------------------------------------------------------
B------------------------------------------------------------------
G------------------------------------------------------------------
D-8-8-8-8-7-7-7-7-10-10-10-8-8-8-8-3-3-3-3-10-10-10-8-8-8-8-7-7-7-7
A-8-8-8-8-7-7-7-7-10-10-10-8-8-8-8-3-3-3-3-10-10-10-8-8-8-8-7-7-7-7
D-8-8-8-8-7-7-7-7-10-10-10-8-8-8-8-3-3-3-3-10-10-10-8-8-8-8-7-7-7-7

E------------------------------------------------------------------
B------------------------------------------------------------------
G------------------------------------------------------------------
D-10-10-10-10h12-12-12-12-10h12-12-12-12-10h12-12p10---------------
A-10-10-10-10h12-12-12-12-10h12-12-12-12-10h12-12p10---------------
D-10-10-10-10h12-12-12-12-10h12-12-12-12-10h12-12p10---------------

Do this twice for each chorus

Verse 2 has an 'intro' of part 1, 
then part 1 and part 2 three times
Then finally part 3 (with the extended ending like in the 1st verse)

CHORUS, but the second repeat is different this time:

E------------------------------------------------------------------
B------------------------------------------------------------------
G------------------------------------------------------------------
D-8-8-8-8-7-7-7-7-10-10-10-8-8-8-8-3-3-3-3-10-10-10-8-8-8-8-7-7-7-7
A-8-8-8-8-7-7-7-7-10-10-10-8-8-8-8-3-3-3-3-10-10-10-8-8-8-8-7-7-7-7
D-8-8-8-8-7-7-7-7-10-10-10-8-8-8-8-3-3-3-3-10-10-10-8-8-8-8-7-7-7-7

E-----------------------------------------
B-----------------------------------------
G-----------------------------------------
D-10-10-10-5-5-5-5-5-5-5-5-5-5-5-5-5-5-5-5
A-10-10-10-5-5-5-5-5-5-5-5-5-5-5-5-5-5-5-5
D-10-10-10-5-5-5-5-5-5-5-5-5-5-5-5-5-5-5-5

Now the BRIDGE:

E----------------------------
B----------------------------
G----------------------------
D-0-0-0-3-3-3-7-7-0-0-3-3-7-7
A-0-0-0-3-3-3-7-7-0-0-3-3-7-7
D-0-0-0-3-3-3-7-7-0-0-3-3-7-7

Repeat this 8 times

Now Part 3 of the INTRO/VERSE (extended ending)

Now the CHORUS with the second ending

Now BRIDGE, but only repeated 4 times

Now the OUTRO:

E----------------------------------
B----------------------------------
G----------------------------------
D-0-0-0-0-0-0-0-0-7-7-7-8-8-8-10-10
A-0-0-0-0-0-0-0-0-7-7-7-8-8-8-10-10
D-0-0-0-0-0-0-0-0-7-7-7-8-8-8-10-10

Repeat this 6 times, then strum open strings to end the song

Thats it
Any comments send to nick_laff@hotmail.com
Comments