Sinch - Something More Chords & Tabs

 

Something More Chords & Tabs

Sinch Chords & Tabs

Version: 3 Type: Tab 0 ratings
1 star 2 stars 3 stars 4 stars 5 stars
comments

Something More Tab

This songs really cool, anther proof that art rock can rock like a bastard.
Kind of reminds me of incubus.

Drop d tuning.
-------------------
-------------------
---6---6---2---3---
--7---7---2--3--5--
-5---5---0--1--3---
------------------- x3

-------------------
-------------------
---6---6-----------
--7---7------------
-5---5---5--------- x1

-------------------
-------------------
---6---6---2---3---
--7---7---2--3--5--
-5---5---0--1--3---
------------------- x3

-------------------
-------------------
-------------------
-0-0---------------
-0-0---------------
-0-0---------------
pm..................


Chorus
--------------------
--------------------
-3-3-3-3-3-2-2-2-5-5
-3-3-3-3-3-2-2-2-5-5
-1-1-1-1-1-0-0-0-3-3 
-------------------- (cuz i believe theres something more0

--------------------
--------------------
-3-3-3-3-3-------5-5
-3-3-3-3-3-3-3-3-5-5
-1-1-1-1-1-3-3-3-3-3 
-----------3-3-3---- (and this isnt what i was looking for)
[ Tab from: http://www.guitartabs.cc/tabs/s/sinch/something_more_tab_ver_3.html ]
--------------------
--------------------
-3-3-3-3-3-2-2-2-5-5
-3-3-3-3-3-2-2-2-5-5
-1-1-1-1-1-0-0-0-3-3 
-------------------- (and if i believe my eyes...

--------------------
--------------------
-5-7-7-7------------
-5-7-7-7------------
-3-5-5-5------------
-------------------- x4 (i am afraid i might miss something)

--------------------
--------------------
-3-3-3-3-3-2-2-2-5-5
-3-3-3-3-3-2-2-2-5-5
-1-1-1-1-1-0-0-0-3-3 
-------------------- (This makes no sense)

--------------------
--------------------
-3-3-3-3-3-------5-5
-3-3-3-3-3-3-3-3-5-5
-1-1-1-1-1-3-3-3-3-3 
-----------3-3-3---- (Im a rising an oasis)

--------------------
--------------------
-3-3-3-3-3-2-2-2-5-5
-3-3-3-3-3-2-2-2-5-5
-1-1-1-1-1-0-0-0-3-3 
-------------------- (and this kills my time)

--------------------
--------------------
-2-2-2-2-2-2-2-2-2-2
-2-2-2-2-2-2-2-2-2-2
-0-0-0-0-0-0-0-0-0-0
--------------------

then repeat this whole bit

Psychobit
--------------------
--------------------
--------------------
-0-0-0-3-3-3-5-5----
-0-0-0-3-3-3-5-5----
-0-0-0-3-3-3-5-5---- repeat as needed 

the song pretty much repeats itself from there! Carry on rocking!
Comments