Sinch - Something More Chords & Tabs

 

Something More Chords & Tabs

Sinch Chords & Tabs

Version: 1 Type: Tab 0 ratings
1 star 2 stars 3 stars 4 stars 5 stars
comments

Something More Tab

   
Author/Artist: Sinch
Title: Something More
Album: Sinch
Tabber: Jimmy Senquiz - jcool1999_2000@hotmail.com
Drop D tuning - low to high - DADGBE

Verse 1: Play 3x
E-----------------------------------
B-----------------------------------
G------5--------5-------------------
D----3---3---3---3-------7----8-----
A--3-------3-----------7-----8------
D--------------------7------8-----10
 
Then play this
E---------------------
B---------------------
G-------5--------5----
D-----3---3---3----3--
A---3-------3--------3
D---------------------

Play 3x
E-----------------------------------
B-----------------------------------
G------5--------5-------------------
D----3---3---3---3-------7----8-----
A--3-------3-----------7-----8------
D--------------------7------8-----10

Then play this
E---------------------------------
B---------------------------------
G------5--------5---------5-------
D----3---3---3----3----3---3---0-0
A--3-------3---------3---------0-0
D------------------------------0-0
p.m.		               _ _

Chorus (Play 2x): 
E--------------------------------------------------------
B--------------------------------------------------------
G--------------------------------------------------------
D--8--88-8-88--33-3--10-10-10--8--88-8-88--33-3--10-10-10
A--8--88-8-88--33-3--10-10-10--8--88-8-88--33-3--10-10-10
D--8--88-8-88--33-3--10-10-10--8--88-8-88--33-3--10-10-10

E--------------------------
B--------------------------
G--------------------------
D-8-88-8-88--33-3--10-10-10
A-8-88-8-88--33-3--10-10-10
D-8-88-8-88--33-3--10-10-10

Play this chord a bunch of times:
E------
B------ 
G------ 
D--12--
A--12--
D--12--

Verse 2: (Play 8x)
E-----------------------------------
B-----------------------------------
G------5--------5-------------------
D----3---3---3---3-------7----8-----
A--3-------3-----------7-----8------
D--------------------7------8-----10
[ Tab from: http://www.guitartabs.cc/tabs/s/sinch/something_more_tab.html ]
Then this:
E---------------------------------
B---------------------------------
G------5--------5---------5-------
D----3---3---3----3----3---3---0-0
A--3-------3---------3---------0-0
D------------------------------0-0
p.m.		               _ _

2nd Chorus: 
E--------------------------------------------------------
B--------------------------------------------------------
G--------------------------------------------------------
D--8--88-8-88--33-3--10-10-10--8--88-8-88--33-3--10-10-10
A--8--88-8-88--33-3--10-10-10--8--88-8-88--33-3--10-10-10
D--8--88-8-88--33-3--10-10-10--8--88-8-88--33-3--10-10-10

E--------------------------
B--------------------------
G--------------------------
D-8-88-8-88--33-3--10-10-10
A-8-88-8-88--33-3--10-10-10
D-8-88-8-88--33-3--10-10-10

First Ending; play this chord a bunch of times:
E------
B------ 
G------ 
D--12--
A--12--
D--12--

Second Ending; this chord a bunch of times:
E-----
B----- 
G----- 
D--5--
A--5--
D--5--

Interlude (Play 8x):
E------------------------------
B------------------------------
G------------------------------
D--0-0-0-3-3-3-7-7--0-0-3-3-7-7
A--0-0-0-3-3-3-7-7--0-0-3-3-7-7
D--0-0-0-3-3-3-7-7--0-0-3-3-7-7

Then end with this: 
E----------
B----------
G----------
D-0-0-3-3-7
A-0-0-3-3-7
D-0-0-3-3-7

E-----------------------------------
B-----------------------------------
G------5--------5-------------------
D----3---3---3---3-------7----8-----
A--3-------3-----------7-----8------
D--------------------7------8-----10

E----------------------------------------
B----------------------------------------
G-------5--------5--------5--------------
D-----3---3---3----3---3---3----------0-0
A---3-------3--------3-------3--------0-0
D-------------------------------------0-0
p.m.		                      _ _

Play 2nd Chorus

Interlude (4x)

Outro (Play 5x and slow down as you repeat)
E---------------------------
B---------------------------
G---------------------------
D-0-0-0-0--7-7-7-8-8-8-10-10
A-0-0-0-0--7-7-7-8-8-8-10-10
D-0-0-0-0--7-7-7-8-8-8-10-10
End with this:
E---------------------------
B---------------------------
G---------------------------
D-0-0-0-0--7-7-7-8-8-8-10--3
A-0-0-0-0--7-7-7-8-8-8-10--3
D-0-0-0-0--7-7-7-8-8-8-10--3
Honestly I’m not sure about that last chord, if anyone knows tell me, thanks.
Comments