Sinatra Nancy - Bang Bang Chords & Tabs

 

Bang Bang Chords & Tabs

Sinatra Nancy Chords & Tabs

Version: 2 Type: Tab 2 ratings
1 star 2 stars 3 stars 4 stars 5 stars
comments

Bang Bang Tab

Nancy Sinatra - Bang Bang
From Kill Bill Vol. 1

Tabbed by- airtrafficpimp:

This song is done with open string chords for the most part.
Once you learn this part, the rest is pretty easy.

Tuned down 1/2 step:

E||----------------------|--------------------|----------------------|
B||--0--------------0----|--------------------|--1-------------1-----|
G||------------0---------|--2--------0--------|--2---------2---------|
D||-------2--------------|--------------------|--2----2--------------|
A||----------------------|--------------------|--0-------------------|
E||----------------------|--------------------|----------------------|

[ Tab from: http://www.guitartabs.cc/tabs/s/sinatra_nancy/bang_bang_tab_ver_2.html ]
                                                                   
--------------------|----------------------|----------------------|
--0-----------------|-----------------1----|--0-------------------|
-----------2--------|--2-------------------|-------2----0---------|
--------------------|--1---------1---------|------------------4---|
--------------------|--2----2--------------|----------------------|
--------------------|----------------------|----------------------|


                                        
--0----------------||
--0----------------||
--0----------------||
--2----------------||
--2----------------||
--0----------------||

Comments