Sinatra Nancy - Bang Bang Melody Chords & Tabs

 

Bang Bang Melody Chords & Tabs

Sinatra Nancy Chords & Tabs

Version: 1 Type: Tab 1 rating
1 star 2 stars 3 stars 4 stars 5 stars
comments

Bang Bang Melody Tab

Nancy Sinatra - Bang Bang
From Kill Bill Vol. 1

Tabbed by - The FLE5H CR1M1NAL
[ Tab from: http://www.guitartabs.cc/tabs/s/sinatra_nancy/bang_bang_melody_tab.html ]
This is the main melody played through out the song. Theres a few other 
little things that go on based on the same chord pattern, but this is the
meat of the song.....
                                                                      
E||----------------------|--------------------|----------------------|
B||--1--------------1----|--------------------|--2--------------2----|
G||------------1---------|--3--------1--------|--1---------1---------|
D||-------3--------------|--------------------|--3----3--------------|
A||----------------------|--------------------|----------------------|
E||----------------------|--------------------|----------------------|


                                                                   
--------------------|----------------------|----------------------|
--1-----------------|--1--------------2----|--1-------------------|
-----------3--------|--0-------------------|-------3----1----0----|
--------------------|--2---------2---------|----------------------|
--------------------|--3----3--------------|----------------------|
--------------------|----------------------|----------------------|


                                        
--1----------------||
--1----------------||
--1----------------||
--3----------------||
--3----------------||
--1----------------||


Comments