Sin Orden - Cual Camino Que Tomar Chords & Tabs

 

Cual Camino Que Tomar Chords & Tabs

Sin Orden Chords & Tabs

Version: 2 Type: Bass Tab 0 ratings
1 star 2 stars 3 stars 4 stars 5 stars
comments

Cual Camino Que Tomar Bass Tab

"Cual Camino Que Tomar"
Written by Sin Orden
As Heard on thier self-titled demo.

Intro
Slow Groove 4X
||----------------------------------||
||-----------------333-2-22---------||
||------------0-00---------3-2------||
||-----------------------------3-0--||
[ Tab from: http://www.guitartabs.cc/tabs/s/sin_orden/cual_camino_que_tomar_btab_ver_2.html ]
  2X
||-----------------------------------------------||
||----------------323---2\5-55-----323---2--2----||
||-----------00-0--------------0-0-----3--3--3-0-||
||-----------------------------------------------||

Double Time 4X
||----------------------------------||
||-----------------333-2-22---------||
||------------0-00---------3-2------||
||-----------------------------3-0--||
  2X
||------------------------------------------------||
||-----------------333-222-222-2^00-000--333-333--||
||------------0-00--------------------------------||
||------------------------------------------------||

Posted by sinorden22@hotmail.com
Comments