Sin Bandera - Kilometros Chords & Tabs

 

Kilometros Chords & Tabs

Sin Bandera Chords & Tabs

Version: 1 Type: Tab

Kilometros Tab

   
Intro
    A5                             D5        c#5           Bm5          E
e|----9-9-9-9--7-7-7--5-5----5-7-9--------9------------0---------0------0--|
B|-------------------------5-------7--5h7----------0-------------3------0--|
G|-----------------------------------------------6-------------4---4----1--|
D|---------------------------------------------------6-------4----------2--|
A|--------------------------------------------4------------2------------2--|
E|--5-------------------------------------------------------------------0--|


A5
A varios cientos de kilómetros,
D5
Puede tu voz darme calor igual que un sol
c#5
Y siento como un cambio armónico
Bm5                     E
Va componiendo una canción en mi interior

A5
Seque seguir no suena lógico
D5
Pero no olvido tu perfume mágico
c#5
Y en éste encuentro telefónico
Bm5                    E
He recordado que estoy loco por ti

A5          D5
Que todo el mundo cabe en el teléfono
c#5            Bm5             E
Que no hay distancias grandes para nuestro amor
D5              c#5             G
Que todo es perfecto cuando te siento
      E                      A5
Tan cerca aunque estes tan lejos

    A5                             D5        c#5           Bm5          E
e|----9-9-9-9--7-7-7--5-5----5-7-9--------9------------0---------0------0--|
B|-------------------------5-------7--5h7----------0-------------3------0--|
G|-----------------------------------------------6-------------4---4----1--|
D|---------------------------------------------------6-------4----------2--|
A|--------------------------------------------4------------2------------2--|
E|--5-------------------------------------------------------------------0--|

A5
A varios cientos de kilómetros
D5
Tiene un secreto que decirte mi dolor
c#5
En cuanto cuelgues el teléfono
Bm5                  E
se quedará pensando mi corazón

A5          D5
Que todo el mundo cabe en el teléfono
c#5            Bm5             E
Que no hay distancias grandes para nuestro amor
D5              c#5             G
Que todo es perfecto cuando te siento
      E                      A5
Tan cerca aunque estes tan lejos...MMMM...UOH..

[ Tab from: http://www.guitartabs.cc/tabs/s/sin_bandera/kilometros_tab.html ]
SOLO
            D5          c#5                      Bm5                     A5
e|-------7-5---------7-4-4h5p4---------------12-10--10-9-------------------------|
B|-----5-----------5-----------5-5-----------------------10-------------9f10d9f10|
G|----------------------------------------9-----------------9---9h10h11----------|
D|-2S7---------2S7-------------------9s11----------------------------------------|
A|-------------------------------------------------------------------------------|
E|-------------------------------------------------------------------------------|

                         D5                         c#5
e|------------9-10-12-13-14------14----16-----19---17-16---------|
B|----9-10-12-----------------14----14----14-------------17--14--|
G|-11------------------------------------------------------------|
D|---------------------------------------------------------------|
A|---------------------------------------------------------------|
E|---------------------------------------------------------------|

           Bm5
e|---9h10-9---------------------------------------------|
B|----------10-7-10----------------------------14-15-17-|
G|-9-------------------------------11-13-14-16----------|
D|------------------------11-12-14----------------------|
A|------------------12-14-------------------------------|
E|------------------------------------------------------|

              E
e|-14-16-17-19-17----17----19----21-|
B|----------------17----17----17----|
G|----------------------------------|
D|----------------------------------|
A|----------------------------------|
E|----------------------------------|

A5          D5
Que todo el mundo cabe en el teléfono
c#5            Bm5             E
Que no hay distancias grandes para nuestro amor
D5              c#5             G
Que todo es perfecto cuando te siento
      E                               A5
Tan cerca aunque estes....... tan lejos


    A5                             D5        c#5           Bm5          E
e|----9-9-9-9--7-7-7--5-5----5-7-9--------9------------0---------0------0--|
B|-------------------------5-------7--5h7----------0-------------3------0--|
G|-----------------------------------------------6-------------4---4----1--|
D|---------------------------------------------------6-------4----------2--|
A|--------------------------------------------4------------2------------2--|
E|--5-------------------------------------------------------------------0--|

      A5
tan lejos........

CHORDS
   A5  D5  c#5 Bm5  E  G
e|-0---0----0---0---0--0--|
B|-0---0----0---3---0--0--|
G|-6---7----6---4---1--4--|
D|-7---7----6---4---2--5--|
A|-7---5----4---2---2--5--|
E|-5---x----x---x---0--3--|

Ya kauros komo siempre aca esta papa mono contribuyendo a los tabs,ya saben kualkier 
al mah.radmanthys@gmail.com

AGRADECER CUESTA NADA...