Simpson Ashlee - Shadow Chords & Tabs

 

Shadow Chords & Tabs

Simpson Ashlee Chords & Tabs

Version: 1 Type: Tab 2 ratings
1 star 2 stars 3 stars 4 stars 5 stars
comments

Shadow Tab

Shadow by Ashlee Simpson
   Tab: Scott MacDougall

Intro and Verse
e-------------------------3-(second time)-----------------------------------------------
B-------0---0---0^1^0-----0---0---0^1^1------1---1---1^3^1-----1---1---1----------------
G-----0---0---0---------0---0---0----------0---0---0--------0---0---0-------------------
D---------------------3------------------2---------------1------------------------------
A---------------------------------------------------------------------------------------
E---3-----------------------------------------------------------------------------------

[ Tab from: http://www.guitartabs.cc/tabs/s/simpson_ashlee/shadow_tab.html ]
PreChorus
e---------------------------------------------------------
B---1---3-------1-------3---------------------------------
G---0---0-------0-------0---------------------------------
D---2---4-------2-------4---------------------------------
A---3---5-------3-------5---------------------------------
E---------------------------------------------------------

Chorus
e---3---1-------3-------1---------------------------------
B---3---1-------5-------1---------------------------------
G---4---2-------5-------2---------------------------------
D---5---3-------5-------3---------------------------------
A---5---3-------3-------3---------------------------------
E---3---1---------------1---------------------------------

Bridge
e---------------------------------------------------------
B---1---------1------------6------6-----------------------
G---2---2-----2-------2----7--2---7-----------------------
D---2---3-----2-------3----7--3---7-----------------------
A---0---3-----0-------3----5--3---5-----------------------
E-------1-------------1-------1---------------------------


Comments