Simpson Ashlee - Pieces Of Me Chords & Tabs

 

Pieces Of Me Chords & Tabs

Simpson Ashlee Chords & Tabs

Version: 1 Type: Tab 3 ratings
1 star 2 stars 3 stars 4 stars 5 stars
comments

Pieces Of Me Tab

   
Artist: Ashlee Simpson
Title: "Pieces of Me"
Tabbed by: Jeremy Satterfield
email: jeremy@s7conline.com

I'm really into rock and stuff, not really
into pop stuff like this, but my sister
sang it around the house all the time
and it got stuck in my head, so I had
to learn the guitar part. Don't ya hate that?
Well it's still a fun song to play, so
knock yourself out.

Verse:
[ Tab from: http://www.guitartabs.cc/tabs/s/simpson_ashlee/pieces_of_me_tab.html ]
------0--0----0---0--------0--0----0---0--
------0--0----0---0--------0--0----0---0--
------6--6----6h7-6--------6--6----6h7-6--
------0--0----0---0--------x--x----x---x--
------x--x----x---x---7-7--7--7--7-7---7--
-7-7--7--7-7--7---7-----------------------


------0--0----0---------0-0-----0-------||
------3--3----3---------0-0-----0------.||
------2--2----2---------2-2-----2-------||
------0--0----0---------2-2-----2------.||
-------------------0-0--0-0--0--0-------||
-3-3--------3---------------------------||


Pre-Chorus:
Bsus   G   Bsus   C   G


Chorus:
D2   G   Em7   A (Repeat like crazy)


Bridge:
D2   G   D2   G
Em7  D2/F#    A  
Comments