Simpson Ashlee - Nothing New Chords & Tabs

 

Nothing New Chords & Tabs

Simpson Ashlee Chords & Tabs

Version: 1 Type: Tab 0 ratings
1 star 2 stars 3 stars 4 stars 5 stars
comments

Nothing New Tab

##################################################################################
# This file is the author's own work and represents their interpretation of the  #
# song. You may only use this file for private study, scholarship, or research.  #
##################################################################################

Ashlee Simpson - Nothing New
Tablatura Hecha Por Gian :D

Verse1

e|--------------------------------------------------------------------------------------------|
B|--------------------------------------------------------------------------------------------|
G|--------------------------------------------------------------------------------------------|
D|-----2-----2---2-------2-----2---2-------2-----2---2-------2-----2---2-------2-----2---2----|
A|---2---2-0---2---2---2---2-0---2---2---2---2-0---2---2---2---2-0---2---2---2---2-0---2---2--|
E|-0-----------------0-----------------0-----------------0-----------------0------------------|

e|-------------------------------|
B|-------------------------------|
G|-------------------------------|
D|-----0---------0---------------|
A|---2---2-----4---4-------------|
E|-3-------3/5-------------------|

e|---------------------------------------------------------|
B|---------------------------------------------------------|
G|---------------0-----------------------------------------|
D|-----2-----2-----2-----2-----2---2-------2-----2---2-----|
A|---2---2-0---2-------2---2-0---2---2---2---2-0---2---2---|
E|-0-----------------0-----------------0-----------------0-|
[ Tab from: http://www.guitartabs.cc/tabs/s/simpson_ashlee/nothing_new_tab.html ]
e|-------------------------------|
B|-------------------------------|
G|-------------------------------|
D|-----0---------0---------------|
A|---2---2-----4---4-------------|
E|-3-------3/5-------------------|


Verse2

e|---------------------------------------------------------|
B|---------------------------------------------------------|
G|---------------0-----------------------------------------|
D|-----2-----2-----2-----2-----2---2-------2-----2---2-----|
A|---2---2-0---2-------2---2-0---2---2---2---2-0---2---2---|
E|-0-----------------0-----------------0-----------------0-|

e|-------------------------------|
B|-------------------------------|
G|-------------------------------|
D|-----0---------0---------------|
A|---2---2-----4---4-------------|
E|-3-------3/5-------------------|


e|---------------------------------------------------------|
B|---------------------------------------------------------|
G|---------------0-----------------------------------------|
D|-----2-----2-----2-----2-----2---2-------2-----2---2-----|
A|---2---2-0---2-------2---2-0---2---2---2---2-0---2---2---|
E|-0-----------------0-----------------0-----------------0-|

e|-------------------------------|
B|-------------------------------|
G|-------------------------------|
D|-----0---------0---------------|
A|---2---2-----4---4-------------|
E|-3-------3/5-------------------|


e|---------------------------------------------------------|
B|---------------------------------------------------------|
G|---------------------------------------------------------|
D|-----2-----2---2-------2-----2---2-------2-----2---2-----|
A|---2---2-0---2---2---2---2-0---2---2---2---2-0---2---2---|
E|-0-----------------0-----------------0-----------------0-|

e|-------------------------------|
B|-------------------------------|
G|-------------------------------|
D|-----0---------0---------------|
A|---2---2-----4---4-------------|
E|-3-------3/5-------------------|
Comments